Song name
# A B C D E F G H I J K L M N O P Q R S T U V W X Y Z

Ed Sheeran - I Love You tab

The song is basically the same all the time. I think this is only the verse though. Have fun.


e ---------0-----0---------0-----0-----------0-----0------------0------0------|
B ------------0---------------0-----------------0-------------------0---------|
G ----------------------------------------------------------------------------|
D ----------------------------------------------------------------------------|
A ----------------------------------------------------------------------------|
E ---9--9------------5--5------------0---0--------------7---7-----------------|


e ---------0-----0---------0-----0-----------0-----0------------0------0------|
B ------------0---------------0-----------------0-------------------0---------|
G ----------------------------------------------------------------------------|
D ----------------------------------------------------------------------------|
A ----------------------------------------------------------------------------|
E ---9--9------------5--5------------0---0--------------7---7-----------------|
Tap to rate this tab
# A B C D E F G H I J K L M N O P Q R S T U V W X Y Z