Guitaretab - guitar tabs
Song name
# A B C D E F G H I J K L M N O P Q R S T U V W X Y Z

Ed Sheeran - I See Fire tab

Tab of Ed Sheeran's song, music theme from Hobbit: The Desolation of Smaug. Great great song.
This tab contain all the solos of the song transcribed for acoustic guitar: the bass, 
the real guitar, the cello and the violin part. (Ear-transcribed)

The real guitar and the violin part can be played with the capo on the 6th fret. But the 
cello and bass part will be play without capo.

Andante = 76
4/4

Solo Guitar:
Capo: 6
(Played in intro, after the verse and the 1st chorus)
e|-------------------------x----|----------x--------------x-----|
B|--5----------------0h1---x----|--3-------x--------------x-----|
G|--2h4p2-p0-----0---0-----x-- -|--0p2--2--x-----0--------x-----|
D|-------------2-----0h2---x----|--0----0--x-----2--------x-----|
A|-------------------3-----x----|--0-------x-----2--------x-----|
E|--0----------------------x----|----------x-----0----0---x-----|

Verses and chorus guitar pattern: (just change the chords)
Capo: 6
e|------x-----------x---|------x--------x---| (You can strum in the chorus
B|------x-----------x---|--3---x---1----x---|   and add a D note on the e
G|--0---x----0------x---|--2---x---0----x---|   string in all the chords.
D|--2---x----0------x---|--0---x---2----x---|
A|--2---x----2------x---|--0---x---3----x---|
E|--0---x----3------x---|------x--------x---|

Solo Violin:
Capo: 6
(Played after the 1st chorus)
e|-------------|------------------------|-------------|---------------------|
B|-0--3--1~--0-|------------------------|-0--3--1~--0-|---------------------|
G|-------------|-2--2p0--0---0--\2-\5~--|-------------|-2--2p0--0--0--\2--0-|
D|-------------|--------2---------------|-------------|-------2-------------|
A|-------------|------------------------|-------------|---------------------|
E|-------------|------------------------|-------------|---------------------|
[ Tab from: http://www.guitaretab.com/e/ed-sheeran/380296.html ]
Solo Cello:
Without capo
(Played after the 1st chorus with the violin)
e|-------------|-------------------------|-----------|----------------------|
B|-------------|-------------------------|-----------|----------------------|
G|-------------|-------------------------|-----------|----------------------|
D|-------------|-------------------------|-----------|----------------------|
A|-----8-------|---------------------4~--|-----8-----|-----------------4----|
E|--9-----6~---|-9-9p6--4--6---4--6------|--9----6~--|-9-9p6--4--6---4---6~-|

Bass
Without capo
(Verses)

OBS: the D# note (11th freth) may be played one octave lower than notated.
But you can't do it with a guitar, only with a bass.
So I put the note higher than the correct.
e|--------------|--------------|--------------|-----------------------------| (The last
B|--------------|--------------|--------------|-----------------------------| verse before
G|--------------|--------------|--------------|-----------------------------| the chorus
D|--------------|--------------|--------------|-----------------------------| you play the
A|--1--4--------|-1--4---------|-1--4---------|--------------| bar 2 times--|
E|--------4--2--|-------4--11--|-------4--11--|--11---0--2------------------|

(Chorus)

e|-------------------|--------|           |------------------|----------|
B|-------------------|--------|   3x,     |------------------|----------|
G|-------------------|--------|   Then:   |------------------|----------|
D|----------------x--|--------|           |---------------x--|----------|
A|--1--3--4-------x--|----1~--|           |--1--3--4------x--|----------|
E|------------2~--x--|-4~-----|           |-----------2~--x--|-4~--11~--|




Tab Legend
----------------
h  - hammer-on
p  - pull-off
\  - slide up
/  - slide down
~  - vibrato
x  - muted

----------------
Lyrics
(Capo: 6)

Oh misty eye of the mountain below
Keep careful watch of my brothers' souls
And should the sky be filled with fire and smoke
Keep watching over Durin's sons

(Solo guitar)

             Em        G
If this is to end in fire
         D             C
Then we shall burn together
           Em          G      D        Am7
Watch the flames climb high into the night
           Em      G      D         C
Calling out father oh, stand by and we will
           Am7         Bm7             C
Watch the flames burn on and on the moutainside

(Solo Guitar)

(Verse)

           Em   C
Now I see fire
 D          Em
Inside the mountain
        Em    C
I see fire
 D          Em
Burning the trees
           Em   C
And I see fire
 D         Em
Hollowing souls
          Em    C
And I see fire
  D          Am7
Burning the breeze
           Am7
And I hope that you remember me


(Solo Violin and Cello)

Repeat the verses and chorus until the end.


That's it. Thanks
Enjoy the music.
Related for I See Fire tab
I See Fire chords by Ed Sheeran