Song name
# A B C D E F G H I J K L M N O P Q R S T U V W X Y Z

Ed Sheeran - Tenerife tab

-------------------------------------------------------------------------------
			     Tenerife - Ed Sheeran
-------------------------------------------------------------------------------
Tabbed by: Jalen Chin

*Was originally called Tenerife Sea but his new album tracklist calls it Tenerife*
*Capo on 4th fret* 
*All fret numbers relative to capo*
*Transcribed from his performance at MSG* https://www.youtube.com/watch?v=-_Hqn2uJALk
Tuning:EADEBE

h = hammer on
p = pull-off
~ = Ring out

Intro: x1
e|-----------------------------------------------------|
B|---------0-----------0--------------0h2p0-------0----|
E|-----0-----------0-----------0---0----------0--------|
D|---2---2-------4---4-------2------------------2------| x3
A|-------------------------0-----0---------------------|
E|-0-----------2---------------------------------------|

e|-----------------------------------------------------------------------|
B|---------0-----------------------------------------------------------0-|
E|-----0-----------0-------------0-----------0-----------0-----------0---|
D|---6---6-------4---4---------2---2-------2---2-------2---2-------2-----|
A|-4-----------2-----------0-----------0-----------0-----------0---------|
E|-----------------------------------------------------------------------|

Verse 1: x1 (You look so wonderful in your dress)
e|-----------------------------------------------------|
B|---------0-----------0--------------0h2p0------0-----|
E|-----0-----------0-----------0---0--------0----------|
D|---2---2-------4---4-------2----------------2--------| x2
A|-------------------------0-----0---------------------|
E|-0-----------2---------------------------------------|

e|-----------------------------------------------|
B|---------0-----------0-------------------------|
E|-----0-----------0-------------0-----------0---|
D|---2---2-------4---4---------2---2-------2---2-| 
A|-------------------------0-----------0---------|
E|-0-----------2---------------------------------|

e|-------------------------------------------------|
B|-----------------------------------------------0-|
E|-----0---0-------0---0---------0-----------0-----|
D|---6-----------4-------------2---2-------2-------|
A|-4-----4-----2-----2-----0-----------0-----------|
E|-------------------------------------------------|

e|-----------------------------------------------------|
B|---------0-----------0--------------0h2p0------0-----|
E|-----0-----------0-----------0---0--------0----------|
D|---2---2-------4---4-------2----------------2--------| x3
A|-------------------------0-----0---------------------|
E|-0-----------2---------------------------------------|

e|-----------------------------------------------|
B|-----------------------------------------------|
E|-----0---0-------0---0---------0-----------0---|
D|---6-----------4-------------2---2-------2---2-|
A|-4-----4-----2-----2-----0-----------0---------|
E|-----------------------------------------------|

Pre-chorus 1: x1 (Should this be the last thing I see)
e|-------------------------------------------------|
B|----------0-----------0-----------0------------0-|
E|------0-----------0-----------0-----------0------|
D|----2---2-------2---2-------2---2-------4---4----| x2
A|-0-----------0-----------2-----------2-----------|
E|-------------------------------------------------|

e|-------------------------------------------------|
B|----------0-----------0-----------0------------0-|
E|------0-----------0-----------0-----------0------|
D|----2---2-------2---2-------2---2-------2---2----| 
A|-0-----------0-----------2-----------2-----------|
E|-------------------------------------------------|

e|----------------------|
B|----------------------|
E|---0----0----0----0---|
D|-----4----4----4------|
A|-2--------------------|
E|----------------------|

Chorus 1: x1 (I'm So in love)
e|-----------------------------------------------------|
B|---------0-----------0--------------0h2p0------0-----|
E|-----0-----------0-----------0---0--------0----------|
D|---2---2-------4---4-------2----------------2--------| x3
A|-------------------------0-----0---------------------|
E|-0-----------2---------------------------------------|

e|------------------------------------------------------------------------|
B|---------0------------0-----------------------------------------------0-|
E|-----0-----------0-------------0-----------0-----------0-----------0----|
D|---2---2-------4---4---------2---2-------2---2-------2---2-------2------|
A|-------------------------0-----------0-----------0-----------0----------|
E|-0-----------2----------------------------------------------------------|

Verse 2: Repeat Verse 1 

Pre-chorus 2: Repeat Pre-chorus 1

Chorus 2: x1 First part is played a little bit different from the first chorus
e|-----------------------------------------------|
B|-----------------------------------0h2p0-------|
E|-0----0-----------0----------0---0-------0---0-|
D|-2--2---2------4-----------2---------------2---| 
A|-2-----------------------0-----0---------------|
E|-0-----------2---------------------------------|

e|-----------------------------------------------------|
B|---------0-----------0--------------0h2p0------0-----|
E|-----0-----------0-----------0---0--------0----------|
D|---2---2-------4---4-------2----------------2--------| x2
A|-------------------------0-----0---------------------|
E|-0-----------2---------------------------------------|

e|-------------------------------------------------|
B|---------0------------0-----------------------0--|
E|-----0-----------0-------------0-----------0-----|
D|---2---2-------4---4---------2---2-------2-------|
A|-------------------------0-----------0-----------|
E|-0-----------2-----------------------------------|

Bridge: (Lumiere...) Repeat this segment as necessary 
e|---------------------------------------------------------------------------|
B|-------0--------0--------0--------0--------0---------0---------0---------0-|
E|-----0--------0--------0--------0--------0---------0---------0---------0---|
D|---6--------6--------2--------2--------4---------4---------2---------2-----|
A|-4--------4--------0--------0--------2---------2---------0---------0-------|
E|---------------------------------------------------------------------------|

e|---------------------------------------------------------------------------|
B|-------0--------0--------0--------0--------0---------0---------0---------0-|
E|-----0--------0--------0--------0--------0---------0---------0---------0---|
D|---6--------6--------2--------2--------4---------4---------4---------4-----|
A|-4--------4--------0--------0--------2---------2---------2---------2-------|
E|---------------------------------------------------------------------------|

Pre-chorus 3: Repeat Pre-chorus 1

Chorus 3: Repeat Chorus 2

Outro: (You look so wonderful in your dress)
e|-----------------------------------------------------|
B|---------------------------------------------------0-|
E|------0-------------0-------------0-------------0----|
D|---2-----2-------4-----4-------2-----2-------2-------| x2
A|---------------------------0-------------0-----------|
E|-0-----------2---------------------------------------|

e|-------------------------------|
B|-------------------------------|
E|------0-------------0----------|
D|---2-----2-------4-----4---2~--| 
A|---------------------------0~--|
E|-0-----------2-----------------|





Tap to rate this tab
# A B C D E F G H I J K L M N O P Q R S T U V W X Y Z