Song name
# A B C D E F G H I J K L M N O P Q R S T U V W X Y Z

Eddie Cochran - Long Tall Sally tab

Help us improve GuitareTab! Take a short survey!
i cant find a tab for this anywhere so i figured it out myself

im pretty sure he just plays an a chord for all the verses

this is just the solo

              the original "Long Tall Sally"
                   by the legend Eddie Cochran
              

|--5-5--7--7b--7--5p0--5p0--5-5--7--7b--7--5p0--5p0--|
|--5-5--7--7b--7--5p0--5p0--5-5--7--7b--7--5p0--5p0--|
|--5-5--7--7b--7--5p0--5p0--5-5--7--7b--7--5p0--5p0--|
|----------------------------------------------------|
|----------------------------------------------------|
|----------------------------------------------------|

|--0-0-0-0-0-0-0-0--7b--7--5------------------------------|
|--5-5-5-5-5-5-5-5------------7--5------------------------|
|----------------------------------7----------------------|
|------------------------------------7-7-7-7-7-7---7-7-7--|
|---------------------------------------------------------|
|---------------------------------------------------------|
-
-bertman

i hope this will lead to more eddie cochran tabs
 :)
Related for Long Tall Sally tab