Song name
# A B C D E F G H I J K L M N O P Q R S T U V W X Y Z

Eddie Cochran - Twenty Flight Rock tab

Song: Twenty Flight Rock
Artist: Eddie Cochran

The great ones always die very young. Eddie was taken away
from us about 50 years ago. Besides Summertime Blues, this is
probably one of his most popular tracks. And yet again, I'm 
surprised that this hasn't been properly tabbed out yet.
Another standard I,IV,V, A,D,E progression. Should be easy to pick
up quickly and the solo is a goody as well. Strums not exact.
Listen for the changes. Lets go!!!

MAIN RIFF/VERSE:
       A                 A                 D           E
e|----------------|-----------------|-------------|--------------|
B|----------------|-----------------|-------2-----|--------------|
G|---------2------|----------2------|-------2-----|--------------|
D|---------2---X3-|----------2--X4--|-0-3/4---X2--|--------2--X2-|
A|-0--3/4---------|--0--3/4---------|-------------|--------2-----|
E|----------------|-----------------|-------------|--0-3/4-------|

CHORUS: (do a light palm mute)
"So I walk 1, 2 flight 3 flight 4...."

              A                         D          A
e|----------------------------------|----------|-----------------|
B|----------------------------------|----------|-----------------|
G|----------------------------------|-24245424-|-----------------|
D|----------24245424---24245424--x2-|-00000000-|-24245424--------|
A|----------00000000---00000000-----|----------|-00000000--------|
E|-0--2--4--------------------------|----------|-----------------|

    E
e|-----------|
B|-----------|
G|-----------|
D|-----------|
A|-24245424--|
E|-00000000--|

Repeat MAIN RIFF/VERSE
Repeat CHORUS

SOLO:  (those fans of Brian Setzer will be familiar with this)

e|-5555-5555-5555-555-|--8p7p5-8p7p5--8p7p5------------|--------|
B|-5555-5555-5555-555-|--8p7p5-8p7p5--8p7p5--8p7p5-----|-4/5-5~-|
G|-6666-6666-6666-666-|----------------------8p7p5-----|-5/6-6--|
D|--------------------|-----------------------------X3-|--------|
A|--------------------|--------------------------------|--------|
E|--------------------|--------------------------------|--------|

e|----------------4/5-----------------|
B|-4/5------------4/5-----------------|
G|-5/6-5-7-7-5-7--5/6-----5-7-5--5~---|
D|-------------------------------7~---|
A|------------------------------------|
E|------------------------------------|

Repeat MAIN RIFF/VERSE
Repeat CHORUS

     
END:
      G#9/G9
e|--------|
B|-11\10--|
G|-10\9---|
D|-10\9---|
A|-11\10--|
E|--------|

That's it for that one guys. Pretty easy stuff. Haven't
decided what to tab out next but, there will be something.
Let me know what you think! Have fun!

************************************

| /   slide up
| \   slide down
| h   hammer-on
| p   pull-off
| ~   vibrato
| +   harmonic
| x   Mute note
| b   Bend
| pb  Pre-bend
| br  Bend release
| pbr Pre-bend release
| brb Bend release bend

************************************
Tap to rate this tab
 
# A B C D E F G H I J K L M N O P Q R S T U V W X Y Z