Eddie Cochran - Twenty Flight Rock tab

----------------------------------------------------------------------------
			     Eddie Cochran - Twenty Flight Rock
----------------------------------------------------------------------------

Love this tune, saw it on the film Nowhere Boy.
The other tab to this is good, but i think this sounds better.


Tuning: Standard:

Intro:
e|-------------------------------------------------------------------------|
B|-------------------------------------------------------------------------|
G|-------------------------------------------------------------------------|
D|-----2------2------2-----------------------------------------------------|
A|0-4b---0-4b---0-4b---0---------------------------------------------------|
E|-------------------------------------------------------------------------|

Verse:
e|-------------------------------------------------------------------------|
B|-------------------------------------------------------------------------|
G|---------------------------------2------2--------------------------------|
D|-----2------2------2------2-0-4b---0-4b----------------------------------|
A|0-4b---0-4b---0-4b---0-4b-----------------0-----------2------2-0---------|
E|-------------------------------------------------0-4b---0-4b-------------|

Chorus:
e|-------------------------------------------------------------------------|
B|-------------------------------------------------------------------------|
G|---------------------2454-2454-------------------------------------------|
D|-2454-2454-2454-2454-0000-0000-2454-2454------2454-----------------------|
A|-0000-0000-0000-0000-----------0000-0000-2454-0000-----------------------|
E|-----------------------------------------0000----------------------------|

I Havnt Got The Solo Yet. But i think thats pretty accurate.
Enjoy!
Tap to rate this tab
 
# A B C D E F G H I J K L M N O P Q R S T U V W X Y Z