Guitaretab - guitar tabs
Song name
# A B C D E F G H I J K L M N O P Q R S T U V W X Y Z

Eddie Decot - 4 Ever tab

SONG: 4-EVER
ARTIST: EDDIE DECOT

Intro
C(add9)           G
-----------3-----------3----|
---------3-----------3------|
-------0-----------0------\-|
-----0-----------2----------| Play 2 times
---2-----------3------------|
-3--------------------------|

VERSE
C(add9)            G
-3--3--3--3-3-3-3--3--3--3--3-3-3-3--|
-3--3--3--3-3-3-3--3--3--3--3-3-3-3--|
-0--0--0--0-0-0-0--0--0--0--0-0-0-0\-|
-0--0--0--0-0-0-0--2--2--2--2-2-2-2--| Play 8 Times
-2--2--2--2-2-2-2--3--3--3--3-3-3-3--|
-3--3--3--3-3-3-3--X--X--X--X-X-X-X--|
[ Tab from: http://www.guitaretab.com/e/eddie-decot/38202.html ]
Chorus
          G        C(add9)   C(add9)
-3--3--3--3--3-3-3--3--3-3-3--3--3-3-3-|
-3--3--3--3--3-3-3--3--3-3-3--3--3-3-3-|
-2--2--2--0--0-0-0--0--0-0-0--0--0-0-0-|
-3--3--3--2--2-2-2--0--0-0-0--0--0-0-0-|
-x--x--x--3--3-3-3--2--2-2-2--2--2-2-2-|
-x--x--x--x--x-x-x--3--3-3-3--3--3-3-3-|

-3--3--3--3--3-3-3--3--3-3-3--3--3-3-3-|
-3--3--3--3--3-3-3--3--3-3-3--3--3-3-3-|
-2--2--2--0--0-0-0--0--0-0-0--0--0-0-0-|
-3--3--3--2--2-2-2--0--0-0-0--2--2-2-2-|
-x--x--x--3--3-3-3--2--2-2-2--3--3-3-3-|
-x--x--x--x--x-x-x--3--3-3-3--x--x-x-x-|

-3--3--3--3--3-3-3--3--3-3-3--|
-3--3--3--3--3-3-3--3--3-3-3--|
-2--2--2--0--0-0-0--0--0-0-0\-|
-3--3--3--2--2-2-2--0--0-0-0--| hold 1 beat
-x--x--x--3--3-3-3--2--2-2-2--|
-x--x--x--x--x-x-x--3--3-3-3--|

outro
  C(add9)             G
-----------3-3--3------------3--3--3-|
---------3---3--3----------3----3--3-|
-------0-----0--0--------0------0--0-|
-----0-------0--0------2--------2--2-|
---2---------2--2----3----------3--3-|
-3-----------3--3--x------------x--x-|