Song name
# A B C D E F G H I J K L M N O P Q R S T U V W X Y Z

Eddie Floyd - Big Bird tab

Band: Eddie Floyd
Song: Big Bird
Tabbed by Eren OGRUL

Listen for the correct timing!


Intro:
e|-0-0-0-0-0-0-0-0-0-0-0-0-0-0-0-0-0-0-0-0-0-0-0-0-0--0--0--0--0--0--0--0--0-|
B|-3h5-5-5-5-5-5-5-5-7-7-7-7-7-7-7-7-8-8-8-8-8-8-8-8-10-10-10-10-10-10-10-10-|
G|---------------------------------------------------------------------------|
D|---------------------------------------------------------------------------|
A|---------------------------------------------------------------------------|
E|---------------------------------------------------------------------------|

Verse:
e|-----3-3-----3h0--|
B|-----0-0-2-2------|
G|-----0-0-2-2------|
D|-2-2-0-0-2-2------|
A|-2-2-2-2----------|
E|-0-0-3-3----------|

Bridge:
e|-----------------2-2-2-2-2-2-2-2-----------------1-1-1-1-7-7-7-7--|
B|-1-1-1-1-1-1-1-1-0-0-0-0-0-0-0-0-1-1-1-1-1-1-1-1-1-1-1-1-7-7-7-7--|
G|-0-0-0-0-0-0-0-0-0-0-0-0-0-0-0-0-0-0-0-0-0-0-0-0-2-2-2-2-8-8-8-8--|
D|-2-2-2-2-2-2-2-2-0-0-0-0-0-0-0-0-2-2-2-2-2-2-2-2-1-1-1-1-9-9-9-9--|
A|-3-3-3-3-3-3-3-3-2-2-2-2-2-2-2-2-3-3-3-3-3-3-3-3-3-3-3-3-9-9-9-9--|
E|-----------------3-3-3-3-3-3-3-3-----------------1-1-1-1-7-7-7-7--|

Chorus:
e|-----------------2-2-2-2-2-2-2-2------------------------------------------------|
B|-----------------3-3-3-3-3-3-3-3-1-1-1-1-1-1-1-1-2-2-2-2-2-2-2-2----------------|
G|-1-1-1-1-1-1-1-1-2-2-2-2-2-2-2-2-0-0-0-0-0-0-0-0-2-2-2-2-2-2-2-2-1-1-1-1-1-1-1--|
D|-2-2-2-2-2-2-2-2-----------------2-2-2-2-2-2-2-2-2-2-2-2-2-2-2-2-2-2-2-2-2-2-2--|
A|-2-2-2-2-2-2-2-2-----------------3-3-3-3-3-3-3-3-----------------2-2-2-2-2-2-2--|
E|--------------------------------------------------------------------------------|


This is the whole song!
Tap to rate this tab
# A B C D E F G H I J K L M N O P Q R S T U V W X Y Z