Guitaretab - guitar tabs
Song name
# A B C D E F G H I J K L M N O P Q R S T U V W X Y Z

Eddie From Ohio - Imagine Me tab

**************************
Eddie From Ohio-Imagine Me
**************************
Album: Actually Not
website:www.efohio.com

Capo 4th Fret

Intro: 

    A             Asus         D/F#               D
e|------------------------------------------------------||
B|-------2--------------2--------------3----------3-----||
G|-----2---2----------2---2----------2----2-------2-----||
D|---2-------(2)----0------(0)-----0--------0-----0-----||
A|-0--------------0--------------0---------------(0)----||
E|-----------------------------2--------------2---------||
[ Tab from: http://www.guitaretab.com/e/eddie-from-ohio/70598.html ]
Verse:
    A             Asus         D/F#               D
e|------------------------------------------------------||
B|-------2--------------2--------------3-------------3--||
G|-----2---2----------2---2----------2----2----------2--||
D|---2-------(2)----0------(0)-----0--------0-----0--0--||
A|-0--------------0--------------0----------------0--0--||
E|-----------------------------2--------------2-- 2-----||

    A             Asus           G      Asus
e|-----------------------------------------------------||
B|-------2--------------2----------------3-------------||
G|-----2---2----------2---2------0-------2-------------||
D|---2-------(2)----0------(0)---0-------2-------------||
A|-0--------------0--------------2-------0-------------||
E|-------------------------------3---------------------||

I canít find the chords to the bridge
Thereís some minor variations during the chorus, I think it ends on Asus instead of D

-Adam Brunell
Email suggestions/corrections/questions to Atwbthe3rd@yahoo.com
Related for Imagine Me tab