Song name
# A B C D E F G H I J K L M N O P Q R S T U V W X Y Z

Eddie From Ohio - Mistress Snow And Mary Jane Green tab

*********************************
Mistress Snow and Mary Jane Green
*********************************
By: Eddie from Ohio

This is a good antidrug song and is fun to play

Intro:
e|-------------------------------------||
B|-----1-------1-------1-------1-------|| 
G|---0---0---0---0---0---0---0---0-----||  x2
D|-3-------2-------0-------------------||
A|-------------------------3-----------||
E|-------------------------------------||

Verse:
e|-------------------------------------||
B|-----1-------1-------1-------1-------|| 
G|---0---0---0---0---0---0---0---0-----||  x4
D|-3-------2-------0-------------------||
A|-------------------------3-----------||
E|-------------------------------------||

e|---------------------0-------0-------||
B|-----1-------1-------1-------1-------|| 
G|---0---0---0---0---0---0---0---0-----||  x3
D|-------------------------------------||
A|---------0-------2-------3-----------||
E|-3-----------------------------------||

E|-------------0---------------0---------------0---||
B|-----1-------1-------1-------1-------1-------1---|| 
G|---0---0---0---0---0---0---0---0---0---0---0--0--|| 
D|-------------------------------------------------||
A|--3------3-------3-------3-------3-------3-------||
E|-------------------------------------------------||

Back to Intro

There’s more but I don’t feel like figuring it out

-Adam Brunell
Comments/Corrections/Questions to Atwbthe3rd@yahoo.com
Tap to rate this tab
# A B C D E F G H I J K L M N O P Q R S T U V W X Y Z