Song name
# A B C D E F G H I J K L M N O P Q R S T U V W X Y Z

Eddie Money - Think Im In Love tab

|------0-----0---------0-2---0-2-------0-----0-----0---------0-----|
|----5-----5---4-----4-----4-----4---2-----2---2-----2---------4---|
|--6-----4-------4-2---------------2-----2-------2-----2-2/4-----4-|
|------------------------------------------------------------------|
|------------------------------------------------------------------|
|------------------------------------------------------------------|

|-----0-----0---------0-2---0-2--------|
|---5-----5---5-----4-----4-----4------|
|-6-----6-------6-4---------------2----|
|------------------------------------2-|
|------------------------------------0-|
|--------------------------------------|
Tap to rate this tab
# A B C D E F G H I J K L M N O P Q R S T U V W X Y Z