Song name
# A B C D E F G H I J K L M N O P Q R S T U V W X Y Z

Eddie Money - Think Im In Love tab

-----------------------------------------------------------------------------
                                  
Think I'm In Love  - Eddie Money (GUITAR)

            
-----------------------------------------------------------------------------
Tabbed by: Scotto10

Tuning: down one half step

=============================================================================

Guitar 1 - rhythm


      E  E  E  E  E  E  E  E     E  E  E  E  E  E  E  E   
E||---------0--------0-----0--|--------0--------0--------|
B||---------------------------|-----------7--------7-----|
G||------9--------9-----------|-----8--------8--------8--|
D||--11--------9--------9-----|--9-----------------------|
A||---------------------------|--------------------------|
E||---------------------------|--------------------------|


  E  E  E  E  E  E  E  E     E  E  E  E   E  E  E  E   
--------0--------0--------|--0------------------0-----|
-----------5--------5-----|-----5------------------0--|
-----6--------6--------6--|--------6---------8--------|
--7-----------------------|-----------7s--9-----------|
--------------------------|---------------------------|
--------------------------|---------------------------|


   E  E  E  E  E  E  E  E     E  E  E  E  E  E  E  E     W                 
---------0--------0-----0--|--------0--------0--------|-------------------|
---------------------------|-----------7--------7-----|--2----------------|
------9--------9-----------|-----8--------8--------8--|--2----------------|
--11--------9--------9-----|--9-----------------------|--2----------------|
---------------------------|--------------------------|--0----------------|
---------------------------|--------------------------|-------------------|


  H        Q    E  E     Q    Q    Q    E  E     E  E  E  Q    E  E  E   
----------------------|-----------------------|-------------------------|
--L--------L----------|-----------------------|-------------------------|
--L--------L----------|-----------------------|-------------------------|
--L--------L-------2--|--L----2----2-------2--|--L-----2--4----4--4--2--|
--L--------L-------2--|--L----2----2-------2--|--L--2--2--2----2--2--2--|
-------------------0--|--L----0----0----0--0--|--L--0--0-------------0--|


  E  E  Q    E  E  E  E     Q    E  Q    E  E  E     Q    Q    Q    E  E   
-------------------------|--L---------------------|-----------------------|
-------------------------|------------------------|-----------------------|
-------------------------|------------------------|--------------------2--|
--L-----2----2--------2--|--L----2--4----L--4-----|--2----2----2-------2--|
--L-----2----2--------0--|--L----0--2----L--2-----|--2----2----2-------0--|
--L--0--0----0--0--0-----|---------------------0--|--0----0----0----0-----|


                                PM           PM                               
  E  E  E  E  E  E  E  E     E  E  Q    Q    E  E     E  E  E  E  E  E  Q     
--------------------------|------------------------|-------------------------|
--------------------------|------------------------|-----4-------------------|
--L--2--2--2--2--2--2-----|------------------------|-----4-------------------|
--L--2--2--2--2--2--2--2--|--L-----2----2-------2--|--L--4-----2--L--2--2----|
--L--0--0--0--0--0--0--2--|--L-----2----2-------2--|--L--2-----2--L--2--2----|
-----------------------0--|--L--0--0----0----0--0--|--L--------0--L--0--0----|


  Q    Q    E  E  E  E     E  E  E  E  E  E  E  E     Q    E  E  E  E  E  E   
------------------------|--------------------------|-------------------------|
------------------------|--------------------------|-------------------------|
---------------------2--|--L--2--2--2--L--2--2--4--|--L----4--4--4--4--4--4--|
--2----2----2--------2--|--L--2--2--2--L--2--2--4--|--L----4--4--4--4--4--4--|
--2----2----2-----2--0--|--L--0--0--0--L--0--0--2--|--L----2--2--2--2--2--2--|
--0----0----0--0--0-----|--------------------------|-------------------------|


  E  E  E  E  E  E  E  E     Q    Q    E  E  E  E     E  E  E  E  E  E  E  E   
--------------------------|------------------------|--------------------------|
--------------------------|------------------------|--------------------------|
-----2-----2-----2--------|---------------------2--|--L--2--2--2--L--2--2-----|
-----2-----2-----2-----2--|--L----2----2--------2--|--L--2--2--2--L--2--2--2--|
-----0-----0-----0-----2--|--L----2----2-----2--0--|--L--0--0--0--L--0--0--2--|
-----------------------0--|--L----0----0--0--0-----|-----------------------0--|


     PM           PM                                                         
  E  E  Q    Q    E  E     E  E  E  E  E  E  E  E     E  Q    Q    E  E  E   
------------------------|--------------------------|----------0----L--------|
------------------------|--------------------------|---------------0--L-----|
------------------------|--------------------------|-----2----L----L--------|
--L-----2----2-------2--|--L--4-----2--L--2--2--4--|--L--L---------------6--|
--L-----2----2-------2--|--L--2-----2--L--2--2-----|------------------------|
--L--0--0----0----0--0--|--L--------0--L--0--0-----|------------------------|


  E  E  E  Q    E  E  E     W                   H.           E  E   
--------0--L-------0--0--|--L----------------|--L------------------|
----------------------0--|--L----------------|--L------------------|
-----4--L-------6--------|-------------------|---------------------|
--L--L-----7----L--------|-------------------|------------------6--|
-------------------------|-------------------|------------------4--|
-------------------------|-------------------|---------------------|


     PM               PM       PM               PM                            
  E  E  E  E  E  Q    E     E  E  E  E  E  Q    E     E  Q    E  E  E  E  E   
-------------------------|-------------------------|-----0----0--0--0-----0--|
--------5-----4--5-------|--------5-----4--5-------|-----0----0--0--0-----2--|
--------6-----4--6-------|--------4-----4--4-------|--2--2----2--2--2-----2--|
--L-----6-----4--6----6--|--4-----4-----4--4-------|--2--2----2--2--2-----2--|
--L--4--4-------------4--|--2--2--2-------------4--|--0--0----0--0--0-----0--|
-------------------------|-------------------------|-------------------------|


                                               PM       PM                   
  Q    E  E  E  E  E  E     Q    E  E  E  Q    E     E  E  E  E  E  Q    E   
--L----0--0--0--0--0--0--|------------------------|-------------------------|
--L----0--0--0--0--0--0--|-------5-----4--5-------|--------5-----4--5-------|
--L----2--2--2--2--2--2--|-------6-----4--6-------|--------4-----4--4-------|
--L----2--2--2--2--2--2--|--6----6-----4--6----6--|--4-----4-----4--4----4--|
--L----0--0--0--0--0--0--|--4----4-------------4--|--2--2--2-------------2--|
-------------------------|------------------------|-------------------------|


                                                                         PM  
  E  Q    E  E  E  E  E     Q    E  E  E  E  E  E     Q    E  E  E  Q    E   
-----0----0--0--0-----0--|--L----0--0--0--0--0--0--|------------------------|
-----0----0--0--0-----2--|--L----0--0--0--0--0--0--|-------5-----4--5-------|
--2--2----2--2--2-----2--|--L----2--2--2--2--2--2--|-------6-----4--6-------|
--2--2----2--2--2-----2--|--L----2--2--2--2--2--2--|--6----6-----4--6----6--|
--0--0----0--0--0-----0--|--L----0--0--0--0--0--0--|--4----4-------------4--|
-------------------------|-------------------------|------------------------|


     PM                                                             
  E  E  E  E  E  Q    E     W                   H.           E  E   
-------------------------|-------------------|---------------------|
--------5-----4--5-------|-------------------|---------------------|
--------4-----4--4-------|-------------------|---------------------|
--4-----4-----4--4----2--|--L----------------|--L---------------2--|
--2--2--2-------------0--|--L----------------|--L---------------2--|
-------------------------|-------------------|------------------0--|


  Q    Q    Q    E  E     E  E  E  Q    E  E  E     E  E  Q    E  E  E  E   
-----------------------|-------------------------|-------------------------|
-----------------------|-------------------------|-------------------------|
-----------------------|-------------------------|-------------------------|
--L----2----2-------2--|--L-----2--4----4--4--2--|--L-----2----2--------2--|
--L----2----2-------2--|--L--2--2--2----2--2--2--|--L-----2----2--------0--|
--L----0----0----0--0--|--L--0--0-------------0--|--L--0--0----0--0--0-----|


  Q    E  Q    E  E  E     Q    Q    Q    E  E     E  E  E  E  E  E  E  E   
--L---------------------|-----------------------|--------------------------|
------------------------|-----------------------|--------------------------|
------------------------|--------------------2--|--L--2--2--2--2--2--2-----|
--L----2--4----L--4-----|--2----2----2-------2--|--L--2--2--2--2--2--2--2--|
--L----0--2----L--2-----|--2----2----2-------0--|--L--0--0--0--0--0--0--2--|
---------------------0--|--0----0----0----0-----|-----------------------0--|


     PM           PM                                                        
  E  E  Q    Q    E  E     E  E  E  E  E  E  Q       Q    Q    E  E  E  E   
------------------------|-------------------------|------------------------|
------------------------|-----4-------------------|------------------------|
------------------------|-----4-------------------|---------------------2--|
--L-----2----2-------2--|--L--4-----2--L--2--2----|--2----2----2--------2--|
--L-----2----2-------2--|--L--2-----2--L--2--2----|--2----2----2-----2--0--|
--L--0--0----0----0--0--|--L--------0--L--0--0----|--0----0----0--0--0-----|


  E  E  E  E  E  E  E  E     Q    E  E  E  E  E  E     E  E  E  E  E  E  E  E   
--------------------------|-------------------------|--------------------------|
--------------------------|-------------------------|--------------------------|
--L--2--2--2--L--2--2--4--|--L----4--4--4--4--4--4--|-----2-----2-----2--------|
--L--2--2--2--L--2--2--4--|--L----4--4--4--4--4--4--|-----2-----2-----2-----2--|
--L--0--0--0--L--0--0--2--|--L----2--2--2--2--2--2--|-----0-----0-----0-----2--|
--------------------------|-------------------------|-----------------------0--|


                                                         PM           PM     
  Q    Q    E  E  E  E     E  E  E  E  E  E  E  E     E  E  Q    Q    E  E   
------------------------|--------------------------|------------------------|
------------------------|--------------------------|------------------------|
---------------------2--|--L--2--2--2--L--2--2-----|------------------------|
--L----2----2--------2--|--L--2--2--2--L--2--2--2--|--L-----2----2-------2--|
--L----2----2-----2--0--|--L--0--0--0--L--0--0--2--|--L-----2----2-------2--|
--L----0----0--0--0-----|-----------------------0--|--L--0--0----0----0--0--|


  E  E  E  E  E  E  E  E     E  Q    Q    E  E  E     E  E  E  Q    E  E  E   
--------------------------|----------0----L--------|--------0--L-------0--0--|
--------------------------|---------------0--L-----|----------------------0--|
--------------------------|-----2----L----L--------|-----4--L-------6--------|
--L--4-----2--L--2--2--4--|--L--L---------------6--|--L--L-----7----L--------|
--L--2-----2--L--2--2-----|------------------------|-------------------------|
--L--------0--L--0--0-----|------------------------|-------------------------|


                                               PM               PM  
  W                   H.           E  E     E  E  E  E  E  Q    E   
--L----------------|--L------------------|-------------------------|
--L----------------|--L------------------|--------5-----4--5-------|
-------------------|---------------------|--------6-----4--6-------|
-------------------|------------------6--|--L-----6-----4--6----6--|
-------------------|------------------4--|--L--4--4-------------4--|
-------------------|---------------------|-------------------------|


     PM               PM                                                      
  E  E  E  E  E  Q    E     E  Q    E  E  E  E  E     Q    E  E  E  E  E  E   
-------------------------|-------------------------|--L----------------------|
--------5-----4--5-------|-------------------------|-------------------------|
--------4-----4--4-------|--2--2-------2--2--2--2--|--L----2--2--2--2--2--2--|
--4-----4-----4--4-------|--2--2-------2--2--2--2--|--L----2--2--2--2--2--2--|
--2--2--2-------------4--|--0--0-------0--0--0--0--|--L----0--0--0--0--0--0--|
-------------------------|-------------------------|-------------------------|


                     PM       PM                                             
  Q    E  E  E  Q    E     E  E  E  E  E  Q    E     E  Q    E  E  E  E  E   
------------------------|-------------------------|-------------------------|
-------5-----4--5-------|--------5-----4--5-------|-------------------------|
-------6-----4--6-------|--------4-----4--4-------|--2--2----2--2--2-----2--|
--6----6-----4--6----6--|--4-----4-----4--4----4--|--2--2----2--2--2-----2--|
--4----4-------------4--|--2--2--2-------------2--|--0--0----0--0--0-----0--|
------------------------|-------------------------|-------------------------|


                                               PM       PM                   
  Q    E  E  E  E  E  E     Q    E  E  E  Q    E     E  E  E  E  E  Q    E   
-------------------------|------------------------|-------------------------|
-------------------------|-------5-----4--5-------|--------5-----4--5-------|
--L----2--2--2--2--2--2--|-------6-----4--6-------|--------4-----4--4-------|
--L----2--2--2--2--2--2--|--6----6-----4--6----6--|--4-----4-----4--4----2--|
--L----0--0--0--0--0--0--|--4----4-------------4--|--2--2--2-------------0--|
-------------------------|------------------------|-------------------------|


  W                   H.           E  E     Q    Q    Q    E  E   
-------------------|---------------------|-----------------------|
-------------------|---------------------|-----------------------|
-------------------|---------------------|-----------------------|
--L----------------|--L---------------2--|--L----2----2-------2--|
--L----------------|--L---------------2--|--L----2----2-------2--|
-------------------|------------------0--|--L----0----0----0--0--|


  E  E  E  Q    E  E  E     E  E  Q    E  E  E  E     Q    E  Q    E  E  E   
-------------------------|-------------------------|--L---------------------|
-------------------------|-------------------------|------------------------|
-------------------------|-------------------------|------------------------|
--L-----2--4----4--4--2--|--L-----2----2--------2--|--L----2--4----L--4-----|
--L--2--2--2----2--2--2--|--L-----2----2--------0--|--L----0--2----L--2-----|
--L--0--0-------------0--|--L--0--0----0--0--0-----|---------------------0--|


  Q    Q    Q.     E     E  E  E  E  E  E  E  E     Q    Q    Q.     E   
----------------------|--------------------------|----------------------|
----------------------|--------------------------|----------------------|
----------------------|--------------------------|----------------------|
-------------------2--|--L--2--2--2--L--2--2-----|----------------------|
--2----2----2------0--|--L--0--0--0--L--0--0--2--|--L----2----2------2--|
--0----0----0---------|-----------------------0--|--L----0----0------0--|


  E  Q    E  E  E  Q       Q    Q    Q.     E     E  E  E  E  E  E  E  E   
------------------------|----------------------|--------------------------|
------------------------|----------------------|--------------------------|
------------------------|----------------------|--------------------------|
-----4------------------|-------------------2--|--L--2--2--2--L--2--2--4--|
--L--2----2--2--2--2----|--2----2----2------0--|--L--0--0--0--L--0--0--2--|
--L-------0--0--0--0----|--0----0----0---------|--------------------------|


  Q    Q    Q.     E     E  E  E  E  E  E  E  E     Q    Q    Q.     E   
----------------------|--------------------------|----------------------|
----------------------|--------------------------|----------------------|
----------------------|--------------------------|----------------------|
--L----4----4------4--|-----2-----2-----2--------|-------------------2--|
--L----2----2------2--|-----0-----0-----0-----2--|--2----2----2------0--|
----------------------|-----------------------0--|--0----0----0---------|


  E  E  E  E  E  E  E  E     Q    Q    Q.     E     E  Q    Q    E  E  E   
--------------------------|----------------------|------------------------|
--------------------------|----------------------|------------------------|
--------------------------|----------------------|------------------------|
--L--2--2--2--L--2--2-----|----------------------|-----4------------------|
--L--0--0--0--L--0--0--2--|--L----2----2------2--|--L--2----2----2--2--4--|
-----------------------0--|--L----0----0------0--|--L-------0----0--0--2--|


  H.           E  E     Q.     H        E           H.           E  E   
---------------------|---------------------|-----|---------------------|
---------------------|---------------------|-----|---------------------|
---------------------|---------------------|-----|---------------------|
---------------------|---------2-----------|-----|------------------6--|
--L------------L--6--|--L------0--------2--|-----|------------------4--|
--L------------L--4--|--L---------------0--|-----|---------------------|


     PM               PM       PM               PM                            
  E  E  E  E  E  Q    E     E  E  E  E  E  Q    E     E  Q    E  E  E  E  E   
-------------------------|-------------------------|-------------------------|
--------5-----4--5-------|--------5-----4--5-------|-------------------------|
--------6-----4--6-------|--------4-----4--4-------|--2--2----2--2--2-----2--|
--L-----6-----4--6----6--|--4-----4-----4--4-------|--2--2----2--2--2-----2--|
--L--4--4-------------4--|--2--2--2-------------4--|--0--0----0--0--0-----0--|
-------------------------|-------------------------|-------------------------|


                                               PM       PM                   
  Q    E  E  E  E  E  E     Q    E  E  E  Q    E     E  E  E  E  E  Q    E   
-------------------------|------------------------|-------------------------|
-------------------------|-------5-----4--5-------|--------5-----4--5-------|
--L----2--2--2--2--2--2--|-------6-----4--6-------|--------4-----4--4-------|
--L----2--2--2--2--2--2--|--6----6-----4--6----6--|--4-----4-----4--4----4--|
--L----0--0--0--0--0--0--|--4----4-------------4--|--2--2--2-------------2--|
-------------------------|------------------------|-------------------------|


                                                                         PM  
  E  Q    E  E  E  E  E     Q    E  E  E  E  E  E     Q    E  E  E  Q    E   
-------------------------|-------------------------|------------------------|
-------------------------|-------------------------|-------5-----4--5-------|
--2--2----2--2--2-----2--|--L----2--2--2--2--2--2--|-------6-----4--6-------|
--2--2----2--2--2-----2--|--L----2--2--2--2--2--2--|--6----6-----4--6----6--|
--0--0----0--0--0-----0--|--L----0--0--0--0--0--0--|--4----4-------------4--|
-------------------------|-------------------------|------------------------|


     PM                                                             
  E  E  E  E  E  Q    E     W                   H.           E  E   
-------------------------|-------------------|---------------------|
--------5-----4--5-------|-------------------|---------------------|
--------4-----4--4-------|-------------------|---------------------|
--4-----4-----4--4----2--|--L----------------|--L---------------6--|
--2--2--2-------------0--|--L----------------|--L---------------4--|
-------------------------|-------------------|---------------------|


     PM               PM       PM               PM                            
  E  E  E  E  E  Q    E     E  E  E  E  E  Q    E     E  Q    E  E  E  E  E   
-------------------------|-------------------------|-------------------------|
--------5-----4--5-------|--------5-----4--5-------|-------------------------|
--------6-----4--6-------|--------4-----4--4-------|--2--2----2--2--2-----2--|
--L-----6-----4--6----6--|--4-----4-----4--4-------|--2--2----2--2--2-----2--|
--L--4--4-------------4--|--2--2--2-------------4--|--0--0----0--0--0-----0--|
-------------------------|-------------------------|-------------------------|


                                               PM       PM                   
  Q    E  E  E  E  E  E     Q    E  E  E  Q    E     E  E  E  E  E  Q    E   
-------------------------|------------------------|-------------------------|
-------------------------|-------5-----4--5-------|--------5-----4--5-------|
--L----2--2--2--2--2--2--|-------6-----4--6-------|--------4-----4--4-------|
--L----2--2--2--2--2--2--|--6----6-----4--6----6--|--4-----4-----4--4----4--|
--L----0--0--0--0--0--0--|--4----4-------------4--|--2--2--2-------------2--|
-------------------------|------------------------|-------------------------|


                                                                         PM  
  E  Q    E  E  E  E  E     Q    E  E  E  E  E  E     Q    E  E  E  Q    E   
-------------------------|-------------------------|------------------------|
-------------------------|-------------------------|-------5-----4--5-------|
--2--2----2--2--2-----2--|--L----2--2--2--2--2--2--|-------6-----4--6-------|
--2--2----2--2--2-----2--|--L----2--2--2--2--2--2--|--6----6-----4--6----6--|
--0--0----0--0--0-----0--|--L----0--0--0--0--0--0--|--4----4-------------4--|
-------------------------|-------------------------|------------------------|


     PM                                                                       
  E  E  E  E  E  Q    E     E  Q    E  E  E  E  E     Q    E  E  E  E  E  E   
-------------------------|-------------------------|-------------------------|
--------5-----4--5-------|----------------------2--|--L----------------------|
--------4-----4--4-------|--2--2----2--2--2-----2--|--L----2--2--2--2--2--2--|
--4-----4-----4--4----4--|--2--2----2--2--2-----2--|--L----2--2--2--2--2--2--|
--2--2--2-------------2--|--0--0----0--0--0-----0--|--L----0--0--0--0--0--0--|
-------------------------|-------------------------|-------------------------|


                     PM       PM                                             
  Q    E  E  E  Q    E     E  E  E  E  E  Q    E     E  Q    E  E  E  E  E   
------------------------|-------------------------|-------------------------|
-------5-----4--5-------|--------5-----4--5-------|-------------------------|
-------6-----4--6-------|--------4-----4--4-------|--2--2----2--2--2-----2--|
--6----6-----4--6----6--|--4-----4-----4--4----4--|--2--2----2--2--2-----2--|
--4----4-------------4--|--2--2--2-------------2--|--0--0----0--0--0-----0--|
------------------------|-------------------------|-------------------------|


  Q    E  E  E  E  E  E                        
-------------------------|-------------------||
-------------------------|-------------------||
--L----2--2--2--2--2--2--|-------------------||
--L----2--2--2--2--2--2--|-------------------||
--L----0--0--0--0--0--0--|-------------------||
-------------------------|-------------------||


===========================================================================
===========================================================================


Guitar   harmony lead - intro
   

E||----|----|----|----|--------------------|--------------------|-----------|
B||----|----|----|----|--------------------|--------------------|-----------|
G||----|----|----|----|--------------------|--------------------|-----------|
D||----|----|----|----|--6~----------------|--4~----------------|-----------|
A||----|----|----|----|--------------------|--------------------|-----------|
E||----|----|----|----|--------------------|--------------------|-----------|
 ||
E||----|----|----|----|--------------------|--------------------|-----------|
B||----|----|----|----|--9~----------------|--7~----------------|--5~-------|
G||----|----|----|----|--------------------|--------------------|-----------|
D||----|----|----|----|--------------------|--------------------|-----------|
A||----|----|----|----|--------------------|--------------------|-----------|
E||----|----|----|----|--------------------|--------------------|-----------|




===========================================================================
===========================================================================

Guitar   harmony lead - this lick is teh harmony that goes throughout the 
song in the chorus

  E  E  E   Q    Q    E     E  E  H.              W                 
|-----------------7-------|---------------------|-------------------|
|--------5s--7---------9--|--L--7--5------------|-------------------|
|-----6-------------------|---------------------|-------------------|
|-------------------------|---------------------|-------------------|
|-------------------------|---------------------|-------------------|
|-------------------------|---------------------|-------------------|
|                                                                   |
|  E  E  E  Q    Q    E     E  E  H.              W                 |     
|-------------------------|---------------------|-------------------|
|-------------------------|---------------------|-------------------|
|-----------------4----1--|--L------------------|-------------------|
|---------2--4------------|-----4--2------------|-------------------|
|------4------------------|---------------------|-------------------|
|-------------------------|---------------------|-------------------|






  W                   E  E  E   Q    Q    E     E  E  H.            
|-------------------|-----------------7-------|---------------------|
|-------------------|--------5s--7---------9--|--L--7--5------------|
|-------------------|-----6-------------------|---------------------|
|-------------------|-------------------------|---------------------|
|-------------------|-------------------------|---------------------|
|-------------------|-------------------------|---------------------|
|                                                                   |
|  W                   E  E  E  Q    Q    E     E  E  H.            |  
|--------------------|------------------------|---------------------|
|--------------------|------------------------|---------------------|
|--------------------|----------------4----1--|--L------------------|
|--------------------|--------2--4------------|-----4--2------------|
|--------------------|-----4------------------|---------------------|
|--------------------|------------------------|---------------------|

===========================================================================
===========================================================================


Guitar   harmony lead - solo (3 parts - two parts harmony)

This is 2 separate guitars playing in octaves written on one staff for brevity                 
  H                                             E   E   E   E   
-----------------------------------------------------------12--|
---------------------------------------------------12--14------|
------------------------------------------------------------9--|
----------------------------------------------------9--12------|
---------------------------------------------------------------|
---------------------------------------------------------------|


   Q     E   E   Q.      E      E   E   E   E   E   E   E   E   
---L----14--12---L------14--|---L--12--14--12--14--12----------|
----------------------------|--------------------------14--12--|
---L----11---9---L------11--|---L---9--11---9--11---9----------|
----------------------------|--------------------------11---9--|
----------------------------|----------------------------------|
----------------------------|----------------------------------|


   W                   E   Q     E   E   E   E   E      H.           E   E   
--------------------|---------------------------12--|---L---------------14--|
---L----------------|-----14----12---L--12--14------|-----------------------|
--------------------|----------------------------9--|---L---------------11--|
---L----------------|-----11-----9---L---9--11------|-----------------------|
--------------------|-------------------------------|-----------------------|
--------------------|-------------------------------|-----------------------|


   E   E   E   E   E   E   E   E      W                                     
---L--12--14--12--14--12----------|--------------------|-------------------|
--------------------------14--12--|---L----------------|-------------------|
---L---9--11---9--11---9----------|--------------------|-------------------|
--------------------------11---9--|---L----------------|-------------------|
----------------------------------|--------------------|-------------------|
----------------------------------|--------------------|-------------------|
   

-------------------|-------------------|-------------------|
-------------------|-------------------|-------------------|
-------------------|-------------------|-------------------|
-------------------|-------------------|-------------------|
-------------------|-------------------|-------------------|
-------------------|-------------------|-------------------|


  H.           E  E     E  Q    H         E      E  Q     Q    E  E  E   
---------------------|-----------------------|--------------------------|
---------------------|-----------------------|--------------------------|
---------------------|----------9------------|-----------11----9--8--9--|
---------------------|-----7-----------------|------9-------------------|
------------------9--|--L----------------11--|---L----------------------|
---------------------|-----------------------|--------------------------|


This is the the harmony to the above part:


  H        E  E   E  E     Q     E  H         E   
------------------------|------------------------|
---------------------9--|--L----10--9--------10--|
--------------9--11-----|------------------------|
------------------------|------------------------|
------------------------|------------------------|
------------------------|------------------------|


   E  E   E  E   E  E   E  E     W                   E   Q    Q    E   E  E   
------------------------------|-------------------|--------------------------|
---L--9--10--9--10--9---------|-------------------|-----------------------9--|
-----------------------11--9--|--L----------------|-----11----9----9--11-----|
------------------------------|-------------------|--------------------------|
------------------------------|-------------------|--------------------------|
------------------------------|-------------------|--------------------------|


  H.           E   E      E  E   E  E   E  E   E   E      W                 
----------------------|-------------------------------|--------------------|
--L---------------10--|---L--9--10--9--10--9----------|--------------------|
----------------------|-----------------------11--11--|---L----------------|
----------------------|-------------------------------|--------------------|
----------------------|-------------------------------|--------------------|
----------------------|-------------------------------|--------------------|


                                                              W                 
-------------------|-------------------|-------------------|-------------------|
-------------------|-------------------|-------------------|-------------------|
-------------------|-------------------|-------------------|-------------------|
-------------------|-------------------|-------------------|-------------------|
-------------------|-------------------|-------------------|-------------------|
-------------------|-------------------|-------------------|-------------------|


  H.           E   E      E   Q     H         E   
----------------------|------------12------------|
----------------------|------10------------------|
------------------11--|---L------------------13--|
----------------------|--------------------------|
----------------------|--------------------------|
----------------------|--------------------------|


   E   Q     Q     E   E   E      W                    W                 
------------14----12--11--12--|---L----------------|---L----------------|
------12----------------------|--------------------|--------------------|
---L--------------------------|--------------------|--------------------|
------------------------------|--------------------|--------------------|
------------------------------|--------------------|--------------------|
------------------------------|--------------------|--------------------|










Duration Legend
---------------
W - whole
H - half
Q - quarter
E - 8th
S - 16th
T - 32nd
X - 64th
. - note dotted
|-n-|  - n-tuplets


Tablature Legend
----------------
L - tied note
x - dead note
g - grace note
(n) - ghost note
> - accentuded note
NH - natural harmonic
AH - artificial harmonic
TH - tapped harmonic
SH - semi harmonic
PH - pitch harmonic
h - hammer on
p - pull off
b - bend
br - bendRelease
pb - preBend
pbr - preBendRelease
brb - bendReleaseBend
\n/ - tremolo bar dip
\n - tremolo bar dive
-/n - tremolo bar Release up
/n\ - tremolo bar inverted dip
/n - tremolo bar return
-\n - tremolo bar Release down
S - shift slide
s - legato slide
/ -  slide into from below or out of upwards
\ -  slide into from above or out of downwards
~ - vibrato
W - wide vibrato
tr - trill
TP - tremolo picking
T - tapping
S - slap
P - pop
< - fade in
^ - brush up
v - brush down
Tap to rate this tab
 
# A B C D E F G H I J K L M N O P Q R S T U V W X Y Z