Song name
# A B C D E F G H I J K L M N O P Q R S T U V W X Y Z

Eddie Money - She Takes My Breath Away tab

                                                                       
E||----------------------|----------------------|----------------------|
B||----------------------|----------------------|----------------------|
G||----------------------|----------------------|----------------------|
D||--9----x----9----x----|--9----x----9----9----|--9----9----9----9----|
A||--9----x----9----x----|--9----x----9----9----|--9----9----9----9----|
E||--7----x----7----x----|--7----x----7----7----|--7----7----7----7----|


                                                                     
----------------------|----------------------|----------------------|
----------------------|----------------------|----------------------|
----------------------|----------------------|----------------------|
--9----x----9----x----|--9----x----9----9----|--9----9----9----7----|
--9----x----9----x----|--9----x----9----9----|--9----9----9----7----|
--7----x----7----x----|--7----x----7----7----|--7----7----7----5----|


                                                                     
----------------------|----------------------|----------------------|
----------------------|----------------------|----------------------|
----------------------|----------------------|----------------------|
--x----7----x----7----|--x----x----5----x----|--5----5----5----5----|
--x----7----x----7----|--x----x----5----x----|--5----5----5----5----|
--x----5----x----5----|--x----x----3----x----|--3----3----3----3----|


                   
-----------------||
-----------------||
-----------------||
--x----5----x----||
--x----5----x----||
--x----3----x----||


that's the main riff and if you have any revision's let me know.  logan@rivenes.org
Tap to rate this tab
# A B C D E F G H I J K L M N O P Q R S T U V W X Y Z