Song name
# A B C D E F G H I J K L M N O P Q R S T U V W X Y Z

Eddie Money - Think Im In Love tab

hey guys this is my first tab so go easy on me. i know this is right because I play by 
and play this normally...so here goes...


E-----------------------------------------------12-12-9-12-12-9-12-12-9-------|
B-----5-7-5-757575---------5-7-5-757575---------------------------------12-10-|
G-4-6--------------6-4-4-6--------------6-4-4-6-------------------------------|
D-----------------------------------------------------------------------------|
A-----------------------------------------------------------------------------|
e-----------------------------------------------------------------------------|

E--------------------------|
B--------------------------|
G-12-9------9-----11-9-8-9-|
D------9-11--9-11----------|
A--------------------------|
e--------------------------|
Tap to rate this tab
# A B C D E F G H I J K L M N O P Q R S T U V W X Y Z