Song name
# A B C D E F G H I J K L M N O P Q R S T U V W X Y Z

Eddie Vedder - Tuolomne tab

PART A: 4x
|----------------|----------------|--1-------1----|--0--------0----||
|--1--------1----|--3--------3----|---------------|----------------||
|------0---------|------0---------|------0--------|------0---------||
|----2---------2-|----2---------2-|----2--------2-|----2---------2-||
|--3------3------|--3------3------|--3------3-----|--3------3------||
|----------------|----------------|---------------|----------------||


PART B: 2x                                PART C: 2x
|----------------|----------------||   |---------------|------------------||
|--1--------1----|--3--------3----||   |--3--------3---|--1--------1------||
|------2---------|------2---------||   |------2--------|------2---------|-||
|----0---------0-|----0---------0-||   |----3----------|----3---------3---||
|----------------|----------------||   |-------------2-|------------------|
|--2------2------|--2------2------||   |--1------1-----|--1------2--------||


        PART D: 2x
|---------------------|----------------|--3-------3----|--0--------0------||
|-0-1---1--------1----|--3--------3----|---------------|------------------||
|-----------0---------|------0---------|------0--------|------0-----------||
|---------2---------2-|----2---------2-|----2--------2-|----2-----------|-||
|-------3------3------|--3------3------|--3------3-----|--3------3--------||
|---------------------|----------------|---------------|------------------||


 PART A: 2x
|----------------|----------------|--1-------1----|--0--------0----||
|--1--------1----|--3--------3----|---------------|----------------||
|------0---------|------0---------|------0--------|------0---------||
|----2---------2-|----2---------2-|----2--------2-|----2---------2-||
|--3------3------|--3------3------|--3------3-----|--3------3------||
|----------------|----------------|---------------|----------------||


PART B: 2x                                PART C: 2x
|----------------|----------------||   |---------------|------------------||
|--1--------1----|--3--------3----||   |--3--------3---|--1--------1------||
|------2---------|------2---------||   |------2--------|------2---------|-||
|----0---------0-|----0---------0-||   |----3----------|----3---------3---||
|----------------|----------------||   |-------------2-|------------------||
|--2------2------|--2------2------||   |--1------1-----|--1------2--------||

That's it and the finger picking pattern is below. Just apply that to the 
tab.
|-------------|    T=Thumb
|-M-------M---|    M=Middle Finger
|-----I-------|    I=Index Finger
|---T-------T-|
|-T-----T-----|
|-------------|
Tap to rate this tab
# A B C D E F G H I J K L M N O P Q R S T U V W X Y Z