Song name
# A B C D E F G H I J K L M N O P Q R S T U V W X Y Z

Eddie Vedder - Society tab

-------------------------------------------------------------------------------
			     Society (solo) - Eddie Vedder
-------------------------------------------------------------------------------
Tabbed by: Nathan Scafe
Email: nscafe@gmail.com

Tuning: Standard

e|---------------------------------------------------------|
B|-------------------------7------7-10---10-10/12----12-10-|
G|---------7----7799---7h9------7--------------------------|
D|-----7h9-------------------------------------------------|
A|---------------------------------------------------------|
E|---------------------------------------------------------|


e|---------------------------------------------------------|
B|------7-8-88-7---------7--77-----------------------------|
G|----7----------9---7-9-------9-7--------7--7-9b--99-7----|
D|---------------------------------9---7h9--------------9--|
A|---------------------------------------------------------|
E|---------------------------------------------------------|


e|---------------------------------------------------------|
B|----88---8-88p7---7-7------------------------------------|
G|---------------------9-7-9---9-9b-7----------------------|
D|------------------------------------9--------------------|
A|---------------------------------------------------------|
E|---------------------------------------------------------|


| /  slide up
| h  hammer-on
| p  pull-off
| b  bend
===============================================================================
Tap to rate this tab
 
# A B C D E F G H I J K L M N O P Q R S T U V W X Y Z