Song name
# A B C D E F G H I J K L M N O P Q R S T U V W X Y Z

Eddie Vedder - Society tab

Artist: Eddie Vedder
Album: Into The Wild
Song: Society

from capo 2

E-------------------3-----5--5/7--7-5------------|
B-----3--33-55--3-5h---3-5-----------------------|
G--2h4-------------------------------------------|
D------------------------------------------------|
A------------------------------------------------|
E------------------------------------------------|

E---2-3-332--------------------------------------|
B--2--------5--357-77p5-3------3-33-5b--55-3-----|
G------------------------4--2h4-------------4----|
D------------------------------------------------|
A------------------------------------------------|
E------------------------------------------------|

Tap to rate this tab
 
# A B C D E F G H I J K L M N O P Q R S T U V W X Y Z