Song name
# A B C D E F G H I J K L M N O P Q R S T U V W X Y Z

Eddie Vedder - Setting Forth tab

                             Setting Forth (INTRO ONLY) - Eddie Vedder

Tabbed By: VelvetAssassin
Tuning: Standard (EADGBe)

This was the most accurate I could play it by transcribing it by ear.

e|---5-------5---5------------|
B|-3---5-3-5---5--------------|
G|----------------------------|
D|----------------------------|  x3 Times
A|----------------------------|
E|----------------------------|


   D(x5)       Em(x1)
e|-2-2-2-2-2---0--------------|
B|-3-3-3-3-3---0--------------|
G|-2-2-2-2-2---0--------------|
D|-0-0-0-0-0---2--------------|
A|-0-0-0-0-0---2--------------|
E|-------------0--------------|


To be precise, the D is played with 5 simultaneous up/down strokes and the E with just 1 stroke.

**OR** this can be played instead of the chords:

   D
e|-------2-------|
B|-3---3---3--5--|
G|---2-----------|
D|---------------|
A|---------------|
E|---------------|

This riff can be played throughout the song, with the addition of the one below in 
certain parts.

  D
e-------2-------|
B-3---3---3-----|
G---2-------4---|
D---------------|
A---------------|
E---------------|


----------x----------x----------x----------x----------x----------x----------x



I've transcribed this using an acoustic guitar so I understand that this isn't perfect, 
however as there was no good intro put up yet I thought this might help. Maybe it'll 
sound better on an electric guitar as it is actually played on an electric one.

ThanQ.
Tap to rate this tab
# A B C D E F G H I J K L M N O P Q R S T U V W X Y Z