Song name
# A B C D E F G H I J K L M N O P Q R S T U V W X Y Z

Eddie Vedder - Girl From The North Country chords

Highlighted       Show chord diagrams
On the D chords hammer your 1st and 3rd fingers on and off so that you get these chords  
(watch this video for reference http://www.youtube.com/watch?v=ssCLcb-oXqU)

e --2----2----0-----------------------------------------------------------|
B --3----3----3-----------------------------------------------------------|
G --2----0----0-----------------------------------------------------------|
D --0----0----0-----------------------------------------------------------|
A ------------------------------------------------------------------------|
E ------------------------------------------------------------------------|

    D    D4   D4sus2


The A4 chord is fingered like this:

e --0---------------------------------------------------------------------|
B --2---------------------------------------------------------------------|
G --2---------------------------------------------------------------------|
D --0---------------------------------------------------------------------|
A --0---------------------------------------------------------------------|
E ------------------------------------------------------------------------|

    A4


D

A4         A                 G             D
 If you're travelling to the north country fair
A4                   A            G     D
 Where the winds hit heavy on the borderline
A4        A         G             D
 Remember me to the one who lives there
     A4       A     G            D
 For she once was a true love of mine


Please see for me if her hair ain't so long
And flows in curls down her back and breast
Please see for me if her hair ain't so long
For that's the way i remember her best

Oh see for me if her coat's pulled up close
And her braid frames her sweet pretty face
Oh see for me if her coat's pulled up close
For I'm exiled in a lonely place

Please see for me if she remembers me at all
Oh a million times i've hoped and I've prayed
In the darkness of my nights
In the brightness of my days

So if you're travelling to the north country fair
Where the winds hit heavy on the borderline
Remember me to the one who lives there
For she once was a true love of mine

    A4       A     G            D
For she once was a true love of mine
Tap to rate this tab
 
# A B C D E F G H I J K L M N O P Q R S T U V W X Y Z