Song name
# A B C D E F G H I J K L M N O P Q R S T U V W X Y Z

Eddie Vedder - Tuolumne tab

Tuolumne- Eddie Vedder


e|--------------------------------1-------1------0-------0--------------------|
B|-1-------1-------3-------3----------1-----1--------1-----1------------------|
G|-----0-----0---------0-----0----------------0--------------0----------------|4x
D|-------------2---------------2----------------------------------------------|
A|-3-3---3---------3-3---3--------3-3---3--------3-3---3----------------------|
E|----------------------------------------------------------------------------|

e|--------------------------------|   e|------------------------------------------------------|
B|-1-------1-------3-------3------|   B|-3-------3-------1-------1------3-------3-----1---0h1-|
G|-----2-----2---------2-----2----|x2 G|-----2-----2---------2-----2--------2-----2-----------|
D|-------------0---------------0--|   D|-------------0---------------0--------------0---------|
A|--------------------------------|   A|------------------------------------------------------|
E|-2-2---2---------2-2---2--------|   E|-1-1---1---------1-1---1--------1-1---1-------1-------|

e|--------------------------------3-------3------0-------0--------------------|
B|-1-------1-------3-------3----------1-----1--------1-----1------------------|
G|-----0-----0---------0-----0----------------0--------------0----------------|2x
D|-------------2---------------2----------------------------------------------|
A|-3-3---3---------3-3---3--------3-3---3--------3-3---3----------------------|
E|----------------------------------------------------------------------------|


e|--------------------------------1-------1------0-------0--------------------|
B|-1-------1-------3-------3----------1-----1--------1-----1------------------|
G|-----0-----0---------0-----0----------------0--------------0----------------|2x
D|-------------2---------------2----------------------------------------------|
A|-3-3---3---------3-3---3--------3-3---3--------3-3---3----------------------|
E|----------------------------------------------------------------------------|


e|--------------------------------|   e|---------------------------------------------------|
B|-1-------1-------3-------3------|   B|-3-------3-------1-------1------3-------3-----3--1-|
G|-----2-----2---------2-----2----|x2 G|-----2-----2---------2-----2---------2----2--------|
D|-------------0---------------0--|   D|-------------0---------------0--------------0------|
A|--------------------------------|   A|---------------------------------------------------|
E|-2-2---2---------2-2---2--------|   E|-1-1---1---------1-1---1--------1--1---------------|

This is my first tab, so please leave feedback to let me know how it is or if it 
needs to be fixed up, thanks.
Tap to rate this tab
# A B C D E F G H I J K L M N O P Q R S T U V W X Y Z