Song name
# A B C D E F G H I J K L M N O P Q R S T U V W X Y Z

Eddie Vedder - Tuolumne tab

This is the tab for Tuolumne.

The picking is almost the same as Dust in the Wind or Guaranteed, but it's slightly 
changed. I've seen other tabs that make a double return to the base, but if you listen 
carefully, you'll see that the base is marking the compass perfectly 1, 2, 3, 4    1, 2, 3, 4


|----------------|----------------|--1-------1----|--0-------0-----||
|--1-------1-----|--3-------3-----|---------------|----------------||
|----0-------0---|----0-------0---|----0-------0--|----0-------0---|| x4
|------2-------2-|------2-------2-|------2------2-|------2-------2-||
|--3-----3-------|--3-----3-------|--3-----3------|--3-----3-------||
|----------------|----------------|---------------|----------------||


                x2
|----------------|----------------||   |---------------|------------------||
|--1-------1-----|--3-------3-----||   |--3------3-----|--1--------1------||
|----2-------2---|----2-------2---||   |----2------2---|----2--------2----||
|------0-------0-|------0-------0-||   |------0------0-|------0--------0--||
|----------------|----------------||   |---------------|------------------||
|--2-----2-------|--2-----2-------||   |--1-----1------|--1------1--------||



|----------------|------------------||
|--3-------3-----|--1----0h1--------||
|----2-------2---|------------------||
|------0-------0-|------------------||
|----------------|------------------||
|--1-----1-------|--1---------------||


|----------------|----------------|--3-------3----|--0-------0-----||
|--1-------1-----|--3-------3-----|---------------|----------------||
|----0-------0---|----0-------0---|----0-------0--|----0-------0---|| x2
|------2-------2-|------2-------2-|------2------2-|------2-------2-||
|--3-----3-------|--3-----3-------|--3-----3------|--3-----3-------||
|----------------|----------------|---------------|----------------||

|----------------|----------------|--1-------1----|--0-------0-----||
|--1-------1-----|--3-------3-----|---------------|----------------||
|----0-------0---|----0-------0---|----0-------0--|----0-------0---|| x2
|------2-------2-|------2-------2-|------2------2-|------2-------2-||
|--3-----3-------|--3-----3-------|--3-----3------|--3-----3-------||
|----------------|----------------|---------------|----------------||



                 x2
|----------------|----------------||   |---------------|------------------||
|--1-------1-----|--3-------3-----||   |--3------3-----|--1--------1------||
|----2-------2---|----2-------2---||   |----2------2---|----2--------2----||
|------0-------0-|------0-------0-||   |------0------0-|------0--------0--||
|----------------|----------------||   |---------------|------------------||
|--2-----2-------|--2-----2-------||   |--1-----1------|--1------1--------||



|----------------|------------------||
|--3-----3-----3-|--1---------------||
|----2-----2-----|------------------||
|------0-----0---|------------------||
|----------------|------------------||
|--1-------------|--1---------------||


Enjoy!
Tap to rate this tab
# A B C D E F G H I J K L M N O P Q R S T U V W X Y Z