Song name
# A B C D E F G H I J K L M N O P Q R S T U V W X Y Z

Eddplant - Untitled Cant Find The Words tab

This is my first tab so be nice (:
I absolutely love this song.

Intro.

e|------------------------------------------------------------------|
A|------------------------------------------------------------------|
D|------------------------------------------------------------------|
G|------------------------------------------------------------------|x4
B|-3-3-3-3-3-3-3-3-1-1-1-1-1-1-1-1----------------------------------|
E|---------------------------------4-4-4-4-4-4-4-4-3-3-3-3-3-3-3-3--|


e|------------------------------------------------------------------|
A|------------------------------------------------------------------|
D|-------------------------------------------------------------0-0--|
G|-1-1-1-1-1-1-1-1-0-0-0-0-0-0-0-0----------------------------------|
B|-3-3-3-3-3-3-3-3-1-1-1-1-1-1-1-1-3-3-3-3-3-3-3-3-2-2-2-2-2-2-2-2--|
E|---------------------------------4-4-4-4-4-4-4-4-3-3-3-3-3-3-3-3--|

e|------------------------------------------------------------------|
A|------------------------------------------------------------------|
D|-0-0-0-0-0-0-0-0-0-0-0-0-0-0-0-0-0-0-0-0-0-0-0-0-0-0-0-0-0-0-0-0--|
G|-1-1-1-1-1-1-1-1-0-0-0-0-0-0-0-0----------------------------------|
B|-3-3-3-3-3-3-3-3-1-1-1-1-1-1-1-1-3-3-3-3-3-3-3-3-2-2-2-2-2-2-2-2--|
E|---------------------------------4-4-4-4-4-4-4-4-3-3-3-3-3-3-3-3--|

He then begins playing chords.
Cm, Bb, Ab, G

He plays that twice and then goes back to
e|------------------------------------------------------------------|
A|------------------------------------------------------------------|
D|------------------------------------------------------------------|
G|-1-1-1-1-1-1-1-1-0-0-0-0-0-0-0-0----------------------------------|
B|-3-3-3-3-3-3-3-3-1-1-1-1-1-1-1-1-3-3-3-3-3-3-3-3-2-2-2-2-2-2-2-2--|
E|---------------------------------4-4-4-4-4-4-4-4-3-3-3-3-3-3-3-3--|
He continues playing this throughout:

Sometime I'm angry
and sometime I hurt
but mostly I miss you
and I can't find the words.

If I say I love you
you misunderstand
you just say I love you
You won't take my hand

I've been trying to tell you
in my words and my deeds
just what you mean to me
but you're blind to my needs

Then for the next verse he plays
e|------------------------------------------------------------------|
A|------------------------------------------------------------------|
D|-0-0-0-0-0-0-0-0-0-0-0-0-0-0-0-0-0-0-0-0-0-0-0-0-0-0-0-0-0-0-0-0--|
G|-1-1-1-1-1-1-1-1-0-0-0-0-0-0-0-0----------------------------------|
B|-3-3-3-3-3-3-3-3-1-1-1-1-1-1-1-1-3-3-3-3-3-3-3-3-2-2-2-2-2-2-2-2--|
E|---------------------------------4-4-4-4-4-4-4-4-3-3-3-3-3-3-3-3--|


I can tell you I love you
and it won't mean a thing
for the words may have meaning
but you're not listening

still I stand on your shoulder
light and darkness and combined
playing conscience and reason
until we intertwine.

He plays chords again here
Cm, Bb, Ab, G

                Cm
Maybe I should forget you
                Bb
shut you out of my life
               Ab
take my refuge in darkness
         G
block out your light

                   Cm
Seek salvation in solace
                      Bb
brave my heart in the cold
                  Ab
keep your memory sacred
         G
so you never grow old


He then resumes just playing chords
Cm, Bb, Ab, G x4


He then goes back to
e|------------------------------------------------------------------|
A|------------------------------------------------------------------|
D|------------------------------------------------------------------|
G|-1-1-1-1-1-1-1-1-0-0-0-0-0-0-0-0----------------------------------|
B|-3-3-3-3-3-3-3-3-1-1-1-1-1-1-1-1-3-3-3-3-3-3-3-3-2-2-2-2-2-2-2-2--|
E|---------------------------------4-4-4-4-4-4-4-4-3-3-3-3-3-3-3-3--|

Sometimes I'm angry
and sometimes I hurt
but mostly I miss you
and I can't find the words




Thanks (: enjoy.
Tap to rate this tab
# A B C D E F G H I J K L M N O P Q R S T U V W X Y Z