Song name
# A B C D E F G H I J K L M N O P Q R S T U V W X Y Z

Eddplant - You Are Not The Voice In My Head tab

Eddplant - 'You Are Not The Voice In My Head'
Tabbed by Sam Brown


Tuning - Drop D


Verse:

E-----------------------------------------------------------------------|
B-----------------------------------------------------------------------|
G-----------------------------------------------------------------------|
D-----0-----0-----------2-----2-----------4-----5-----------2-----2-----|
A---0-----0-----0-----0-----0-----0-----0-----0-----0-----0-----0-----0-|
D-0-----0-----0-----0-----0-----0-----0-----0-----0-----0-----0-----0---|


Prechorus:

E-------------------------|
B-------------------------|
G-------------------------|
D-0-----2-----4-----2-----|
A-0(x8)-0(x8)-0(x8)-0(x8)-|
D-------------------------|


Chorus:

E--------------------|
B--------------------|
G--------------------|
D-5------0-----7-----|
A-5------0-----7-----|
D-5(x16)-0(x8)-7(x8)-|

Structure:

Verse x6
Prechorus x1
Verse x2
Prechorus x2
Chorus x3
Verse x2
Tap to rate this tab
# A B C D E F G H I J K L M N O P Q R S T U V W X Y Z