Song name
# A B C D E F G H I J K L M N O P Q R S T U V W X Y Z

Eddplant - The First Star tab

(This is how I play it when I don't have a piano accompanying me, so a lot of the 
tabs are the piano part made guitar-esque.)

  eddplant - The First Star; from the EP "None Of These Songs Are About You,
                         But Some Of Them Might Apply"
                          tabbed by anotherjanedoe

Chords:  A G#/A F#m E D DM7 Dadd9
       e|5---5---2--0-2--2----2--|
       B|5---5---2--0-3--2----5--|
       G|6---6---2--1-2--2----2--|
       D|7---7---4--2-0--0----0--|
       A|7---7---4--2------------|
       E|5---4---2--0------------|


e|--------------------------------------------|
B|-----5--------5--------2--------0-------3---|
G|-6--------6--------2--------1-----1-2-----2-|
D|---7--------6--------4--------2-------0-----|   x2
A|--------------------------------------------|
E|--------------------------------------------|

e|-------------------------------------------------------------------------|
B|-----5------------------5------------------2-----------------0-------3---|
G|-6------------------6------------------2-----------------1-----1-2-----2-|
D|---7------------------6------------------4-----------------2-------0-----|
A|-------------------------------------------------------------------------|
E|-------------------------------------------------------------------------|
     Do you remember that cold November night, I held you close.

e|---------------------------------------------------------------|
B|-----5---------------------------5-----------------------------|
G|-6---------------------------6---------------------------------|
D|---7---------------------------6-------------------------------|
A|---------------------------------------------------------------|
E|---------------------------------------------------------------|
     Evenings in revelry grow old but your words forever soothe me

e|--------------------------------------------------------------------------|
B|-----2--------------------------------0----------------------3--3-2-3-5-5-|
G|-2--------------------------------1----------------------2----------------|
D|---4--------------------------------2----------------------0--------------|
A|--------------------------------------------------------------------------|
E|--------------------------------------------------------------------------|
  Is it you that's making this hard? I can't imagine moving on.

e|--------------------------------------------------------------------|
B|-----5-------------5---------------2--------------------0-----------|
G|-6-------------6---------------2--------------------1---------------|
D|---7-------------6---------------4--------------------2-------------|
A|--------------------------------------------------------------------|
E|--------------------------------------------------------------------|
       Star light,   star bright.  The first star you see tonight

e|----------------------------------------------------|
B|---------3------------------------3---2-------------|
G|-----2------------------------------------2---------|
D|-------0--------------------------------------------|
A|----------------------------------------------------|
E|----------------------------------------------------|
   may not be a star. Wishing never gets you that far.

e|----------------------------------------------------------|
B|--------------------------------------------------(2/)3---|
G|------------------------------------------------2-------2-|
D|------7-------7-----7-------4-----4-------2---0-----------|   x2
A|----7-------7---7-----7---4---4-----4---2---2-------------|
E|--5-------4-------------2-------------0-------------------|
   (far.)

A                          G#/A
It's not a matter of 'who loves who', I think we're both agreed

     F#m                       E   D
that love's not on the cards.

A                           G#/A
We're talking chemistry and open-ended conversations.

F#m                        E          D
I never promised myself to you, but I wish you would.

F#m  E  D  |  F#m  E  D  (D DM7 D Dadd9)

A           G#/A         F#m                E                D
Star light, star bright. The first star you see tonight may not be a star.

Wishing never gets you that far.

A  G#/A  F#m  E  D  (x2)

A           G#/A         F#m                E                D
Star light, star bright. The first star you see tonight may not be a star.

                            A
Wishing never gets you that far,

          G#/A              F#m            E
but if it could, you know I would wish for you,

                D           F#m   E
wish that you'd wish for me too.
Tap to rate this tab
# A B C D E F G H I J K L M N O P Q R S T U V W X Y Z