Song name
# A B C D E F G H I J K L M N O P Q R S T U V W X Y Z

Eddy Current Suppression Ring - Which Way To Go tab

*FOR ADMINS* --> http://www.myspace.com/eddycurrentsuppressionring 

band: Eddy Current Suppression Ring
song: Which Way To Go
tabbed by: shanE
email: random.hero___@hotmail.com

i didnt tab this with timing in mind, just did a rush job so 
4 chords doesnt equal 4 strums, just a rough estimate. im sure
youll figure it out

intro/verse

|--------------------------------------------|
|--------------------------------------------|
|--------------------------------------------|
|--------------------------------------------|
|--5-5-5-5-5--12-12--3-3-10-10--17-17-17-17--|
|--3-3-0-3-3--10-10--1-1-8--8---15-15-15-15--|

|-----------------------|
|-----------------------|
|-----------------------|
|-----------------------| i think just the bass plays this fill but
|--------------15-------| you can play it too.
|--13-12-10-12-13-------|


|------------------------------------------|
|------------------------------------------|
|------------------------------------------|
|------------------------------------------|
|-15-15-15-15--10-10-10-10--5-5-5-5--10-10-|
|-13-13-13-13--8--8--8--8---3-3-3-3--8--8--|

lead bit

|-------------------------------------|
|-------------------12-12-------------|
|-------12-------12-------12-12-------|
|-12-12----12-12----------------12-12-|
|-------------------------------------|
|-------------------------------------|

|------------------------------------------|
|------12-------10-------10------8------12-|
|---12-------11-------10-------9--------12-|
|12-------12-------10-------10------12--12-|
|------------------------------------------|
|------------------------------------------|

|-------------------------------------|
|-------------------12-12-------------|
|-------12-------12-------12-12-------|
|-12-12----12-12----------------12-12-|
|-------------------------------------|
|-------------------------------------|

|------------------------------------------------|
|--------------10-10---------------8-8-----------|
|--------10----------10-------9--------10--------|
|--10-10----10----------10-10---10--------10-----|
|------------------------------------------------|
|------------------------------------------------| repeats

after lead bit

|--------------------|
|--------------------|
|--------------------|
|--------------------| 
|----5--5--5--10-5---|
|----3--3--3--8--3---|

|--------------------|
|--------------------|
|--------------------|
|-7b-5--3-3-3-2-2-2-2| something like this is played underneath.
|--------------------| not that much of an important part of the song
|--------------------| so i wont bother figuring it out. :) 
Tap to rate this tab
# A B C D E F G H I J K L M N O P Q R S T U V W X Y Z