Song name
# A B C D E F G H I J K L M N O P Q R S T U V W X Y Z

Eddy Current Suppression Ring - I Can Be A Jerk tab

I Can Be A Jerk
by Eddy Current Suppression Ring

(RIFF)
   E   D      A  E  D          (E)
E ----------------------------|
B ----------------------------|
G -9---11s13--------11s13-----|
D -----0------11-9--0------11-|
A ------------0------------0--|
E -0-------------0------------| (x2)

(RIFF x4 over verse w/bass, drums)

I know at times
I can be a jerk
But deep down inside
I want us to work

You know I don't like
making you cry
but I'd rather tell the truth
than tell you a lie

(CHORUS)
    A           F#             B           E
E ----------------------2----------------------------|
B ----5-5-5-5---------2---2------7-7-7-7-----0-------|
G ----6-6-6-6-------3------------8-8-8-8-----1-------|
D ----7-7-7-7-----4--------------9-9-9-9-----2-------|
A ---------------------------------------------------|
E --5---------5-2------------2-7---------7-0---0-2-4-|

    A           F#             B           B
E ----------------------2-----------------------------|
B ----5-5-5-5---------2---2------7-7-7-7-----7-7-7-7--|
G ----6-6-6-6-------3------------8-8-8-8-----8-8-8-8--|
D ----7-7-7-7-----4--------------9-9-9-9-----9-9-9-9--|
A ----------------------------------------------------|
E --5---------5-2------------2-7-----------7----------|


Please let me put
my arms around you
And accept that I am sorry
and you were sorry too

(RIFF x4 over verse)

I know at times
I can be a jerk
But deep down inside
I want us to work

You know I don't like
making you cry
but I'd rather tell the truth
than tell you a lie

(CHORUS)

Please let me put
my arms around you
And accept that I am sorry
and you were sorry too

(SOLO)

(RIFF x4 over verse)

I know at times
I can be a jerk
But deep down inside
I want us to work

You know I don't like
making you cry
but I'd rather tell the truth
than tell you a lie

(CHORUS)

Please let me put
my arms around you
And accept that I am sorry
and you were sorry too

Please let me put
my arms around you
And accept that I am sorry
and you were sorry too
you were sorry too

(END ON E CHORD)
Tap to rate this tab
 
# A B C D E F G H I J K L M N O P Q R S T U V W X Y Z