Song name
# A B C D E F G H I J K L M N O P Q R S T U V W X Y Z

Eddy Current Suppression Ring - Hey Mum tab


Intro:

 B A B A and stop on a B chord


 The guitar riff goes on like this for almost the whole song

 |-----------------------------|
 |-----------------------------|
 |-----------------------------|
 |-----------------------------|
 |----7-----6-7-----9-7--------|
 |--5---5-7-----0-------9-0----|

 Then later in the song you play like this only one time:

 |----------------------------------|
 |----------------------------------|
 |----------------------------------|
 |----------------------------------|
 |------7-5-5-4-5-----7-5-5-4-5-----|
 |--7-7-----------7-7-----------7-0-|

That is probably the whole song enjoy//Harald
Tap to rate this tab
# A B C D E F G H I J K L M N O P Q R S T U V W X Y Z