Eddy Duane - Peter Gunn tab

Artist:Eddy Duane.
Song:Peter Gunn.
Tuning:Standard.
Tab:Lopez017.

Bass/Guitar riff
e-------------------|
b-------------------|
g-------------------|
d-------------------|
a---------------0---|
E-0-0-2-0-3-3-0---4-|

Saxaphone part
e-----------------7---|
b-3----------3------6-|
g------4\-------------|
d---------------------|
a---------------------|
E---------------------|


e-----------------------------|
b---3-5-6-6-6-6-5-3-----------|
g-4-----------------4-2-4-0h1-|
d-----------------------------|
a-----------------------------|
E-----------------------------|

Play both of those sax parts again. I don't know therest of the song for sax. Just keep 
playing the bass/guitarpart or improvise something.

End somthing lik this..
e-3--3--3--3--3--3--3-2-----2-|
b-4--4--4--4--4--4--4-3-----3-|
g-2--2--2--2--2--2--2-1-----1-|
d-3--3--3--3--3--3--3-2-----2-|
a-----------------------------|
E-----------------------------|
Tap to rate this tab
 
# A B C D E F G H I J K L M N O P Q R S T U V W X Y Z