Song name
# A B C D E F G H I J K L M N O P Q R S T U V W X Y Z

Eden Mulholland - Blueprint Acoustic tab

Artist: Eden Mulholland
Song: Blueprint
Album: Feed The Beast
Tuning: Standard

Intro

e |--x---0---5---0----|
B |--1---1---6---1----|
G |--2---2---7---0----|
D |--3---2---7---2----|
A |--3---0---5---3----|         
E |--x---x---x---x----|

Verse 1

e |--x---0---5---0----|
B |--1---1---6---1----|
G |--2---2---7---0----|
D |--3---2---7---2----|
A |--3---0---5---3----|         
E |--x---x---x---x----|

We can make something from all these pieces
From all these colours 
We can make a pretty blueprint
Or we can build something
Maybe a monument 
Then we can set it on fire 
Maybe see what happens

We can make something from all these pieces
From all these colours 
We can make a pretty blueprint
Or we can build something
Maybe a monument 
Then we can set it on fire 
Maybe see what gives

Chorus

e |--x---0---5---0----|
B |--1---1---6---1----|
G |--2---2---7---0----|
D |--3---2---7---2----|
A |--3---0---5---3----|         
E |--x---x---x---x----|

Soon, you’ll be floating on ice
Soon, you’ll be out on your own

Verse 2

We could make something from out of nothing
From all the static we could make a bolt of lightening
Or we can leave something
Maybe a legacy
Then we could set it on fire 
Maybe you and me

Chorus

Verse 3

We could make something from out of nothing
From all the static we could make a bolt of lightening
Or we can leave something
Maybe a legacy
Then we could set it on fire 
Maybe you and me

Chorus

Outro

e |--10--5--8--10--5--8--12--10--5--8--10--5--8--12--10--12--17--|
B |--------------------------------------------------------------|
G |--------------------------------------------------------------|
D |--------------------------------------------------------------|
A |--------------------------------------------------------------|      
E |--------------------------------------------------------------|
Tap to rate this tab
# A B C D E F G H I J K L M N O P Q R S T U V W X Y Z