Guitaretab - guitar tabs
Song name
# A B C D E F G H I J K L M N O P Q R S T U V W X Y Z

Edgar Winter Group - The Power Of Positive Drinkin tab

 Intro/ Verse:
e|---------------------------------------------------------------------------|
B|---------------------------------------------------------------------------|
G|--9-9-9-9---9-9-9-9---7--7-7-----------------------------------------------|
D|--9-9-9-9---9-9-9-9---7--7-7---7-------------------------------------------|
A|--7-7-7-7---7-7-7-7---5--5-5---7-------------------------------------------|
E|-------------------------------5-------------------------------------------|           
                      Repeat 7X
 Pre Chorus:
e|-----------------------------------------------------------------------------|
B|-----------------------------------------------------------------------------|
G|--7-7-7-7-7-7-7-7-9-9-9-9-9-9-9-9-7-7-7-7-7-7-7-7-9-9-9-9-9-9-9-9------------|
D|--7-7-7-7-7-7-7-7-9-9-9-9-9-9-9-9-7-7-7-7-7-7-7-7-9-9-9-9-9-9-9-9------------|
A|--5-5-5-5-5-5-5-5-7-7-7-7-7-7-7-7-5-5-5-5-5-5-5-5-7-7-7-7-7-7-7-7------------|
E|-----------------------------------------------------------------------------|

 Im still working on the chorus. Email me at jdb7693@msn.com if you figure it out. Thanks
[ Tab from: http://www.guitaretab.com/e/edgar-winter-group/178382.html ]
Related for The Power Of Positive Drinkin tab