Edgar - Jingle Bells Xmas tab

/ = let note roll
Chorus:
E-5-5-5-/-5-5-5-/-5-8----5-/-6-6-6-6-6-5-5-5-5-----5-----8-------------|
B--------------------6--8----------------------8-8-----8---------------|
G----------------------------------------------------------------------|
D----------------------------------------------------------------------|
A----------------------------------------------------------------------|
E----------------------------------------------------------------------|

E-5-5-5-/-5-5-5-/-5-8----5-/-6-6-6-6-6-5-5-5-8-8-6---------------------|
B--------------------6-8---------------------------8-6-----------------|
G----------------------------------------------------------------------|
D----------------------------------------------------------------------|
A----------------------------------------------------------------------|
E----------------------------------------------------------------------|

Verse
E-----5-3-----------5-3------------6-5-3----8-10-8---------------------|
B---------6-------------6-3--/-3-3------5-/---------11-8-10------------|
G-5-5-------5--/5-5----------------------------------------------------|
D----------------------------------------------------------------------|
A----------------------------------------------------------------------|
E----------------------------------------------------------------------|

E-----5-3----------5-3-----------6-5-3-8-8-8-8-10-8--------------------|
B---------6-3----------6-3-/-3-3----------------------11-8-------------|
G-5-5--------/-5-5-----------------------------------------10----------|
D----------------------------------------------------------------------|
A----------------------------------------------------------------------|
E----------------------------------------------------------------------|
Tap to rate this tab
 
# A B C D E F G H I J K L M N O P Q R S T U V W X Y Z