Guitaretab - guitar tabs
Song name
# A B C D E F G H I J K L M N O P Q R S T U V W X Y Z

Edge Of Sanity - The Last Song tab

Edge of Sanity - The last Song

Version 1.0


Tabbed by Hypocrite (c) 2008/06/01

This is the second part of 'The Last Song' by Edge of Sanity.
Released 1997 on the album Infernal, the last album Edge of Sanity released as a whole band 
though there was no co-work for the songs. This song is one of my favourite and quite emotional 
because it pretty much ended an era (but crimson II came ha!).

Hope it's not too bad and you can ejoy it!

-Hypocrite


I tabbed this song in standard tuning.
E A D G b e

/ Slide Up
\ Slide Down
h Hammer On
p Pull Off
ph pinched harmonic

Since i've never been a good guitar player there are some sounds, 
the very high parts almost at the end, i couldn't find out. If you know them
leave a message and i'll update this tab.(if you find mistakes message me, too.
it may be that i fucked up writing it down correctly.)

in the background are some tones that seem to be made with
a whammy bar which i don't have on my guitar. so i left them out.

e|-------------|-------------|
B|-------------|-------------|
G|-------------|-------------|
D|-------------|-------------|
A|6------------|8------------|
E|4------------|6------------|

background chords. pretty easy.

Here's the rest:

2:25 - 2:46
|-----------------------------6/8--------------------------------|
|---------------------/6-8--------6------------------------------|
|------3----5----7--8---------------8-7--/8-7-5-3/5\3------------|
|-5--------------------------------------------------------------|
|----------------------------------------------------------------|
|----------------------------------------------------------------|

2:47 - 3:05
|-------6--8----10--11-10--8-------------------------------------|
|-/8--------------------------8--6-------------------------------|
|----------------------------------8-7h8p7h8p7--8-7\5-3----------|
|----------------------------------------------------------------|
|----------------------------------------------------------------|
|----------------------------------------------------------------|
[ Tab from: http://www.guitaretab.com/e/edge-of-sanity/175632.html ]
3:06 - 3:24
|---------------------------6--------------6---------------------|
|--------6-8------------8------6--6----8------6------------------|
|-/5-7-8-----7---8-7----------------------------7/(8)\7----------|
|----------------------------------------------------------------|
|----------------------------------------------------------------|
|----------------------------------------------------------------|

3:25 - 3:46
|-----6--8-------------------------------------------------------|
|-8---------6--6----8/9-8-6--8--6--------------------------------|
|----------------------------------7--8--7-5-3-5-----------------|
|----------------------------------------------------------------|
|----------------------------------------------------------------|
|----------------------------------------------------------------|

3:47 - 4:06
|----------------------------------------------------------------|
|-----------11--8---8ph---6--------------------------------------|
|-/7--8--10------------------8-7h8p7----8--7-5-3/5\3-------------|
|----------------------------------------------------------------|
|----------------------------------------------------------------|
|----------------------------------------------------------------|

4:07 - 4:26
|--------------------/6------------------------------------------|
|------------8----------6-------8---6-------6--------------------|
|---5--7--8------------------------------8-------7h8p7-----------|
|----------------------------------------------------------------|
|----------------------------------------------------------------|
|----------------------------------------------------------------|

4:27 - end
|---------------------------------3--4-3-4-3--6------------------|
|---------------------3--4-3-4-3----------------8-6--------------|
|-7-5-3----3--5-3-5-3-------------------------------8-7-8-5-3h5p3|
|----------------------------------------------------------------|
|----------------------------------------------------------------|
|----------------------------------------------------------------|
Related for The Last Song tab