Song name
# A B C D E F G H I J K L M N O P Q R S T U V W X Y Z

Edge Of Sanity - Feedin The Charlatan tab

Edge Of Sanity 
   - Feedin' the Charlatan  -

       tabbed by PelzR

------
Infos:
------

Tuning: B (B E A D G B)

------
Riffs:
------
				    
Intro
                  
B|------------------------------|----------------------------|
G|------------------------------|----------------------------|
D|------------------------------|----------------------------| Guitar 1
A|------------------------------|----------------------------| play this riff
E|--------------------------2h3-|--------------------------3-|
B|-2-2--0-2-2--0-2-2--0-2h3-----|-2-2--0-2-2--0-2-2--0-2h3---|

B|------------------------------|----------------------------|
G|------------------------------|----------------------------|
D|------------------------------|----------------------------| Guitar 2
A|------------------------------|--------------------------5-| enters with
E|------------------------------|--------4-4---------2-4-5-3-| the drums
B|------------------------------|--------2-2---------0-2-3---|
                                                       . .

Verse

B|------------------------------|----------------------------|
G|------------------------------|----------------------------|
D|------------------------------|----------------------------|
A|------------------------------|--------------------------5-|
E|-4-4--2-4-4--2-4-4--2-----2h3-|-4-4--2-4-4--2-4-4--2-4-5-3-|
B|-2-2--0-2-2--0-2-2--0-2h3-----|-2-2--0-2-2--0-2-2--0-2-3---|
                                                       . .

Pre-Chorus

B|------------------|---------------------------------|
G|------------------|---------------------------------|
D|------------------|---------------------------------| Guitar 1 
A|-4--2-------------|---------------------------------|
E|------4--3--0h2-0-|-----------------------------2h3-|
B|------------------|-0-2-3-0-2-3-0-2-3-0-2-3-2h3-----|
                      . . . . . . . . . . . . 

B|------------------|---------------------------------|
G|------------------|---------------------------------|
D|-6--4-------------|---------------------------------| Guitar 2
A|------6--5--2h4-2-|---------------------------------|
E|------------------|-----------------------------2h3-|
B|------------------|-0-2-3-0-2-3-0-2-3-0-2-3-2h3-----|
                      . . . . . . . . . . . . 

Chorus

B|-------------------------------|
G|-------------------------------|
D|-------------------------------|
A|-------------------------------|
E|-2--8-8--7-------7-5-8--8-8--8-|
B|-0--6-6--5-3h5p3-5-3-6--6-6--6-|


Interlude

B|----------------------------| |----------------------------|
G|----------------------------| |----------------------------|
D|----------------------------| |----------------------------| Guitar 1
A|-7-7--7-7-7--7-7-7--7-------| |-5-5--5-5-5--5-5-5--5-------| 
E|-5-5--5-5-5--5-5-5--5-------| |-3-3--3-3-3--3-3-3--3-------|
B|----------------------4h5p4-| |----------------------2h3p2-|

B|------------------------------|-------------------------------|
G|-14'--------------------------|-12'---------------------------|
D|---------------------13h14p13-|----------------------11h12p11-| Guitar 2 
A|------------------------------|-------------------------------|
E|------------------------------|-------------------------------|
B|------------------------------|-------------------------------|


Outro

B|---------------------------|
G|---------------------------|
D|---------------------------|
A|---------------------------|
E|-4-4--4-4--4-4--4-4--4-4-4-|
B|-2-2--2-2--2-2--2-2--2-2-2-|


----------
Structure:
----------
Intro       1x
Verse       4x
Pre-Chorus  2x
Chorus      4x   
Interlude   2x
Verse       4x
Pre-Chorus  2x
Chorus      2x |break| 4x
Pre-Chorus  just listen to which  
	    riff is needed
Outro       1x


------------
Description:
------------
.   - palm mute
h   - hammer on
p   - pull of
'   - tremolo picking


Tap to rate this tab
 
# A B C D E F G H I J K L M N O P Q R S T U V W X Y Z