Guitaretab - guitar tabs
Song name
# A B C D E F G H I J K L M N O P Q R S T U V W X Y Z

Edge Of Sanity - Black Tears tab

                                  Black Tears                                   


                                                                  Edge Of Sanity
Solo Guitar

by Sam The Ripper
d_sporos@hotmail.com
d_samakos@yahoo,gr

                                                                               



                                                                                
E--10----------10----10----------10----------10----10----------10----------10----
B-----12-10-12----12----12----12----12----12----12----12-10-12----12-10-12----12-
G--------------------------11----------11----------------------------------------
D--------------------------------------------------------------------------------
A--------------------------------------------------------------------------------
D--------------------------------------------------------------------------------


                                                              
--10----------10----------10----------10----------10b------7/|
-----12-10-12----12-10-12----12-10-12----12-10-12------------|
-------------------------------------------------------------|
-------------------------------------------------------------|
-------------------------------------------------------------|
-------------------------------------------------------------|


                                                         
--10-9----------9-10-12-12r-10-9-|--9~--9~--------------|
-------10----10------------------|----------10~---------|
----------11---------------------|----------------------|
---------------------------------|----------------------|
---------------------------------|----------------------|
---------------------------------|----------------------|

[ Tab from: http://www.guitaretab.com/e/edge-of-sanity/38342.html ]
                                         
----------------------------------------|
--11b11--11b11--11b11--11b11--11b11--11-|
----------------------------------------|
----------------------------------------|
----------------------------------------|
----------------------------------------|


                                                                          
--13b13--13b13--13b13--13b13--13b13--13-|--17b---19/19/19-19/19-19-19/19-|
----------------------------------------|--------------------------------|
----------------------------------------|--------------------------------|
----------------------------------------|--------------------------------|
----------------------------------------|--------------------------------|
----------------------------------------|--------------------------------|


                                                                               
--17r--17~------------|--17b---------------------|--17b-----------------------|
----------------------|-------19-----------------|-------19-----------15------|
----------------------|------------19--16--------|------------19--16----------|
----------------------|--------------------------|----------------------------|
----------------------|--------------------------|----------------------------|
----------------------|--------------------------|----------------------------|


                                                          
-------14-----------------|--17b--14-----------14--------|
--15--------15------------|------------15-----------15---|
----------------16--------|----------------16------------|
--------------------------|------------------------------|
--------------------------|------------------------------|
--------------------------|------------------------------|


                                                               
--19------------------|------------------|-------------------||
----------------15----|------------------|-------------------||
--16------------------|------------------|-------------------||
----------------------|------------------|-------------------||
----------------------|------------------|-------------------||
----------------------|------------------|--1/---------------||
Related for Black Tears tab
Advertisement will be closed in 10 seconds