Song name
# A B C D E F G H I J K L M N O P Q R S T U V W X Y Z

Edge Of Sanity - Sacrificed tab

Edge of Sanity "Sacrificed"
The Spectral Sorrows
tabbed by: Drew Schinzel 
March 2000

Standard tuning

I didn't note timing, so listen to the CD for accuracy
Legend:
-------
h hammer on

 riff 1
|-----------------------------------|
|-----------------------------------|
|-----------------------------------|
|--10-----9-----7---5h7-7-7--5h-7---|
|-----0-0---0-0---0-----------------|
|-----------------------------------|

 riff 1, rhythm guitar
|---------------------------------------|
|---------------------------------------|
|---------------------------------------|
|--7------------3----------7------------|
|--7------------3----------7------------|
|--5------------1----------5------------|

 riff 2
|---------|
|---------|
|---2-----|
|---2-----|
|---0-----|
|---------|

 riff 3  each note 16 times               riff 3, rhythm guitar
|---------------------------------------|-----------------------------------
-|
|--------------13---12------------------|-----------------------------------
-|
|-10---9--------------------------------|-----------------------------------
-|
|---------------------------------------|--3------2---------3------2--------
-|
|---------------------------------------|--3------2---------3------2--------
-|
|---------------------------------------|--1------0---------1------0--------
-|

 riff 4
|---------------------------------------|
|---------------------------------------|
|---5--------------4--------------------|
|---5--------------4--------------------|
|---3--------------2--------------------|
|---------------------------------------|
Tap to rate this tab
 
# A B C D E F G H I J K L M N O P Q R S T U V W X Y Z