Song name
# A B C D E F G H I J K L M N O P Q R S T U V W X Y Z

Edge Of Sanity - Blood Colored tab

Tabbed by Haribo (Andres)

Tuning:   Db Ab Db Gb Bb Eb
          C# G# C# F# A# D#

Eb|------------------------------------------------------|
Bb|------------------------------------------------------|
Gb|------------------------------------------------------|
Db|--------------------7-6-5-----------------------------|
Ab|-----------------0---------7-6-5/3--5--3--6--5--3-----|
Db|-----------7/2----------------------------------------|

Eb|---------------------------------------------|
Bb|---------------------------------------------|
Gb|---------------------------------------------|
Db|-----------7-6-5-----------------------------|
Ab|--------0---------7-6-5/3--5--3--6-----------|
Db|---------------------------------------------|

Eb|------------------------------------------------------------------|
Bb|------------------------------------------------------------------|
Gb|------------------------------------------------------------------|
Db|----------7-6-5---------------------------------------------------|
Ab|-------0---------7-6-5/3--5--3--6--5--3-------------------3--3--0-|
Db|--------------------------------------------7-6-5-2--1--0---------|

Eb|---------------------------------------------|
Bb|---------------------------------------------|
Gb|---------------------------------------------|
Db|-----------7-6-5-----------------------------|
Ab|--------0---------7-6-5/3--5--3--6--5--3-----|
Db|---------------------------------------------|

Eb|---------------------------------------------|
Bb|---------------------------------------------|
Gb|---------------------------------------------|
Db|-----------7-6-5-----------------------------|
Ab|--------0---------7-6-5/3--5--3--6-----------|
Db|---------------------------------------------|

Eb|------------------------------------------------------------------|
Bb|------------------------------------------------------------------|
Gb|------------------------------------------------------------------|
Db|----------7-6-5---------------------------------------------------|
Ab|-------0---------7-6-5/3--5--3--6--5--3-------------------3--3--0-|
Db|--------------------------------------------7-6-5-2--1--0---------|

Rate Please :D!
Tap to rate this tab
 
# A B C D E F G H I J K L M N O P Q R S T U V W X Y Z