Song name
# A B C D E F G H I J K L M N O P Q R S T U V W X Y Z

Edgewater - Sweet Suffocation tab

     Edgewater - sweet suffocation

  Tuning - Drop D (E B G D A D)
Tabbed by Dmitriy Nosov!

Intro  0:00 - 0:10
E----------------------------------------------------------------------------|
B----------------------------------------------------------------------------|
G----------------------------------------------------(2(second guitar)-------|
D----------------------------------------------------------------------------|(x3)
A----------------------------------------------------------------------------|
D--1p0-0-1-0--0-1-0--0--1/3\1p0----------------------------------------------|

E----------------------------------------------------------------------------|
B----------------------------------------------------------------------------|
G----------------------------------------------------------------------------|
D----------------------------------------------------------------------------|(x1)
A----------------------------------------------------------------------------|
E--1p0-0-1-0--0-1/3\1p0------------------------------------------------------|


Verse

Repeat intro with Palm mute!

0:11 - 0:21

Pre-chorus

0:22 - 0:33

E----------------------------------------------------------------------------|
B----------------------------------------------------------------------------|
G----------------------------------------------------------------------------|
D-1-0-0-1-0--0--1-0-0-1---3---1---0------------------------------------------|(x4)
A-1p0-0-1-0--0--1-0-0-1-/-3\--1p--0------------------------------------------|
E-1--0-0-1-0--0-1-0-0-1---3---1---0------------------------------------------|

Chorus

E---------------------------------------------------------------------------|
B---------------------------------------------------------------------------|
G---------------------------------------------------------------------------|
D-5---------8----------1--0-0-1-0-------------------------------------------|
A-5-(x8)----8-(x8)-----1p-0-0-1-0--(x2)-------------------------------------|
E-5---------8----------1--0-0-1-0-------------------------------------------|

1:34 - 1:44

D-5-5-5-5-5-5-5-55-5-5-5/8-8-8-8-8-8-8/10-10-10-10-10-10-10---

P.M............................................................................................
Tap to rate this tab
 
# A B C D E F G H I J K L M N O P Q R S T U V W X Y Z