Song name
# A B C D E F G H I J K L M N O P Q R S T U V W X Y Z

Edgewater - Caught In The Moment tab

Edgewater - Caught in the moment

Tuning - standart

Intro
I have a weakness, for some of her sweetness.
God made her curves for me to see.
E---------------------------------------------------------------------------|
B---------------------------------------------------------------------------|
G---------------------------------------------------------------------------|
D---7-7-7---7-7-7--7-7-7/5-5---(x3)--------7-7-7---7-7-7--7-7-7/9-9/10-10---|
A---7-7-7---7-7-7--7-7-7/5-5---------------7-7-7---7-7-7--7-7-7/9-9/10-10---|
E---5-----------------------------------------------------------------------|


Verse
I got a feeling that I might be cheating.
Maybe I should walk away.
1 guitar
E---------------------------------------------------------------------------|
B---------------------------------------------------------------------------|
G---------------------------------------------------------------------------|
D---7-7-7---7-7-7---7-7-7--7-7-7-7--7-7-7---7-7-7--7-7-7-/9-9/-10-10--------|
A---7-7-7---7-7-7---7-7-7--7-7-7-7--7-7-7---7-7-7--7-7-7/-9-9/-10-10--------|
E---5-5-5---5-5-5---5-5-5--5-5-5-5--5-5-5---5-5-5--5-5-5--------------------|

2 guitar

G---7-7-7---7-7-7--7-7-7---7-7-7-|
D---7-7-7---7-7-7--7-7-7---7-7-7-|

Pre - chorus
I know I'm not supposed to be giving into this, but I'm
E---------------------------------------------------------------------------|
B---------------------------------------------------------------------------|
G---------------------------------------------------------------------------|
D--3------------------------12----------------------------------------------|
A--3-(Many times!)----------12-(many times too!)----------------------------|
E--1------------------------10----------------------------------------------|

Chorus
Caught in the moment.
The legs su, su sweat the sex.
She's got a hold onto me.
Caught in the moment.
I don't want her love. I just want a piece.
E---------------------------------------------------------------------------|
B---------------------------------------------------------------------------|
G---------------------------------------------------------------------------|
D--7----3----10----9-----10--------7-----3-----10-----9---------------------|
A--7(x8)3(x8)10(x8)9(x4)-10(x4)----7(x8)-3(x8)-10(x8)-9-x8)-----------------|
E--5----1----8-----7-----8---------5-----1-----8------7---------------------|

Chorus
1:20-1:27
Caught in the moment
The legs, the sweat, the sex
Look what she did to me
E---------------------------------------------------------------------------|
B---------------------------------------------------------------------------|
G---------------------------------------------------------------------------|
D--7--------3-3-3---7---3-3-3-3---10--------12--10--------9--------10-------|
A--7-(x8)---3-3-3-/-7-/-3-3-3-3---10-(x4)/--12/-10-(x3)---9-(x4)---10(x4)---|
E--5--------1-1-1---5---1-1-1-1---8---------10--8---------7---------8-------|

Solo
Lead guitar
------------------------------------------------------------------

E----------------------------------------------------------------------------|
B----------------------------------------------------------------------------|
G---------13------13---------------------------------------------------------|
D---/14b-----14b-----14/12/10/12--12--10/5--7--7--9/10/9--5------------------|
A----------------------------------------------------------------------------|
E----------------------------------------------------------------------------|


E---------------------------------------------------------------------------|
B---------------------------------------------------------------------------|
G-----9--7--9--9p7-5/12----------7--9/12--12/15--16b--17b-------------------|
D--7---------------------14--7----------------------------------------------|
A---------------------------------------------------------------------------|
E---------------------------------------------------------------------------|
Second guitar play chorus!

Repeat :1-chorus;2- Chorus1:20-1:27;3-intro with second guitar part from verse!(from 2:46to2:47)

2:50 - to the end
E---------------------------------------------------------------------------|
B---------------------------------------------------------------------------|
G---------------------------------------------------------------------------|
D-2-2---2--3-3--3-----------------------------------------------------------|
A-2-2---2--3-3--3--Let ring!------------------------------------------------|
E-0-0---0--1-1--1-----------------------------------------------------------|  . .
Tap to rate this tab
# A B C D E F G H I J K L M N O P Q R S T U V W X Y Z