Song name
# A B C D E F G H I J K L M N O P Q R S T U V W X Y Z

Edgewater - Lifter tab

------------------------------------------------------------------
Song: Lifter(Guitar solo)
Band: Edgewater
Album: South of Sideways


I'd saw other versions of Lifter's solo, but they was incorrect(
I'm pretty sure it's 100% right!!!It's real easy to play, but it's a cool solo!!!
Enjoy!!!)))

1 solo
D--------------------------------------------------------------------------|
A--------------------------------------------------------------------------|
F---------------------------17-17---17----17/19-19-------------------------|
C-/15-15-15-15-15-15-15-15-------15----15----------------------------------|
G--------------------------------------------------------------------------|
C--------------------------------------------------------------------------|

D--------------------------------------------------------------------------|
A--------------------------------------------------------------------------|
F-15-15-15-15-14-14-14-14-15-15-15-15-12-12-12-12--------------------------|
C--------------------------------------------------------------------------|
G--------------------------------------------------------------------------|
C--------------------------------------------------------------------------|

D--------------------------------------------------------------------------|
A--------------------------------------------------------------------------|
F---------------------------17-17---17----17/19-19-------------------------|
C-/15-15-15-15-15-15-15-15-------15----15----------------------------------|
G--------------------------------------------------------------------------|
C--------------------------------------------------------------------------|

D--------------------------------------------------------------------------|
A--------------------------------------------------------------------------|
F-15-15-15-15-14-14-14-14-14-14-14-14-14-15h17-17-17-17--------------------|
C--------------------------------------------------------------------------|
G--------------------------------------------------------------------------|
C--------------------------------------------------------------------------|

2 solo
D--------------------------------------------------------------------------|
A--------------------------------------------------------------------------|
F---------------------------17-17---17-17--17/19-19------------------------|
C-/15-15-15-15-15-15-15-15-------15----------------------------------------|
G--------------------------------------------------------------------------|
C--------------------------------------------------------------------------|

D--------------------------------------------------------------------------|
A--------------------------------------------------------------------------|
F-15-15-14-14-14-14-14-14-15-15-15-15-12-12-12-12--------------------------|
C--------------------------------------------------------------------------|
G--------------------------------------------------------------------------|
C--------------------------------------------------------------------------|

D--------------------------------------------------------------------------|
A--------------------------------------------------------------------------|
F---------------------------17-17---17----17/19-19-------------------------|
C-/15-15-15-15-15-15-15-15-------15----15----------------------------------|
G--------------------------------------------------------------------------|
C--------------------------------------------------------------------------|

D--------------------------------------------------------------------------|
A--------------------------------------------------------------------------|
F-15-15-15-15-14-14-14-14-15-15-15-15-17-17-17-17-17t----------------------|
C--------------------------------------------------------------------------|
G--------------------------------------------------------------------------|
C--------------------------------------------------------------------------|

/ - slide up
t - tremolo
Tap to rate this tab
 
# A B C D E F G H I J K L M N O P Q R S T U V W X Y Z