Song name
# A B C D E F G H I J K L M N O P Q R S T U V W X Y Z

Edgewater - Inhale tab

--------------------------------------------------------------


Song: Inhale
Band: Edgewater
Album: South Of Sideways
Tabbed by Dmitriy Nosov
E-mail: Dmitrijjnsvv@rambler.ru
-----------------------------------------------------------------------

INTRO Riff
1 Guitar
E---------------------------------------------------------------------|
B---------------------------------------------------------------------|
G---------------------------------------------------------------------|
D--8-0-0-0--8-0-0-0--8-0-0-0--8-0-0-0---1-1-x-1-1-1-------------------|
A--8-0-0-0--8-0-0-0--8-0-0-0--8-0-0-0---1-1-x-1-1-1-------------------|
D--8-0-0-0--8-0-0-0--8-0-0-0--8-0-0-0---1-1-x-1-1-1-------------------|

2 Guitar

E---------------------------------------------------------------------|
B---------------------------------------------------------------------|
G---------------------------------------------------------------------|
D---------------------------------------3-3-x-3-3-3-------------------|
A---------------------------------------3-3-x-3-3-3-------------------|
D---------------------------------------3-3-x-3-3-3-------------------|

E---------------------------------------------------------------------|
B---------------------------------------------------------------------|
G---------------------------------------------------------------------|
D--8-0-0-0--8-0-0-0--8-0-0-0--8-0-0-0---3-3-x-3-3-3-------------------|
A--8-0-0-0--8-0-0-0--8-0-0-0--8-0-0-0---3-3-x-3-3-3-------------------|
D--8-0-0-0--8-0-0-0--8-0-0-0--8-0-0-0---3-3-x-3-3-3-------------------|

E----------------------------------------------------------|
B----------------------------------------------------------|
G----------------------------------------------------------|
D---------------------------------------5-5-x-5-5-5--------|
A---------------------------------------5-5-x-5-5-5--------|
D---------------------------------------5-5-x-5-5-5--------|

E---------------------------------------------------------------------|
B---------------------------------------------------------------------|
G---------------------------------------------------------------------|
D--8-0-0-0--8-0-0-0--8-0-0-0--8-0-0-0---1-1-x-1-1-1-------------------|
A--8-0-0-0--8-0-0-0--8-0-0-0--8-0-0-0---1-1-x-1-1-1-------------------|
D--8-0-0-0--8-0-0-0--8-0-0-0--8-0-0-0---1-1-x-1-1-1-------------------|

E---------------------------------------------------------------------|
B---------------------------------------------------------------------|
G---------------------------------------------------------------------|
D---------------------------------------3-3-x-3-3-3-------------------|
A---------------------------------------3-3-x-3-3-3-------------------|
D---------------------------------------3-3-x-3-3-3-------------------|

E---------------------------------------------------------------------|
B---------------------------------------------------------------------|
G---------------------------------------------------------------------|
D--8-0-0-0--8-0-0-0--8-0-0-0--8-0-0-0---3-3-x-3-3-3-------------------|
A--8-0-0-0--8-0-0-0--8-0-0-0--8-0-0-0---3-3-x-3-3-3-------------------|
D--8-0-0-0--8-0-0-0--8-0-0-0--8-0-0-0---3-3-x-3-3-3-------------------|

E--------------------------------------------------------------------------|
B--------------------------------------------------------------------------|
G--------------------------------------------------------------------------|
D---------------------------------------5-5-x-5-5-5------------------------|
A---------------------------------------5-5-x-5-5-5------------------------|
D---------------------------------------5-5-x-5-5-5------------------------|


VERSE Riff
1 Guitar
E-----------------------------------------------------------------|\
B-----------------------------------------------------------------| \   
G-----------------------------------------------------------------|  \
D-0-0--0-0-0--0-0-0--0-0-0--x-1-1-1-x-1-2-------------------------|   \
A-0-0--0-0-0--0-0-0--0-0-0--x-1-1-1-x-1/2-------------------------|    \
D-0-0--0-0-0--0-0-0--0-0-0--x-1-1-1-x-1-2-------------------------|     \
                                                                        |
                                                                        |2x
2Guitar                                                                 |
E-----------------------------------------------------------------|     /
B-----------------------------------------------------------------|    /
G-----------------------------------------------------------------|   /
D-----------------------------3-3-3-x-3-4-------------------------|  /
A-----------------------------3-3-3-x-3/4-------------------------| /
D-----------------------------3-3-3-x-3-4-------------------------|/


1 Guitar
E---------------------------------------------------------------------|
B---------------------------------------------------------------------|
G---------------------------------------------------------------------|
D--8-0-0-0--8-0-0-0--8-0-0-0--8-0-0-0---1-1-x-1-1-1-------------------|
A--8-0-0-0--8-0-0-0--8-0-0-0--8-0-0-0---1-1-x-1-1-1-------------------|
D--8-0-0-0--8-0-0-0--8-0-0-0--8-0-0-0---1-1-x-1-1-1-------------------|

2 Guitar

E---------------------------------------------------------------------|
B---------------------------------------------------------------------|
G---------------------------------------------------------------------|
D---------------------------------------3-3-x-3-3-3-------------------|
A---------------------------------------3-3-x-3-3-3-------------------|
D---------------------------------------3-3-x-3-3-3-------------------|

E---------------------------------------------------------------------|
B---------------------------------------------------------------------|
G---------------------------------------------------------------------|
D--8-0-0-0--8-0-0-0--8-0-0-0--8-0-0-0---3-3-x-3-3-3-------------------|
A--8-0-0-0--8-0-0-0--8-0-0-0--8-0-0-0---3-3-x-3-3-3-------------------|
D--8-0-0-0--8-0-0-0--8-0-0-0--8-0-0-0---3-3-x-3-3-3-------------------|

E----------------------------------------------------------|
B----------------------------------------------------------|
G----------------------------------------------------------|
D---------------------------------------5-5-x-5-5-5--------|
A---------------------------------------5-5-x-5-5-5--------|
D---------------------------------------5-5-x-5-5-5--------|

E---------------------------------------------------------------------|
B---------------------------------------------------------------------|
G---------------------------------------------------------------------|
D--8-0-0-0--8-0-0-0--8-0-0-0--8-0-0-0---1-1-x-1-1-1-------------------|
A--8-0-0-0--8-0-0-0--8-0-0-0--8-0-0-0---1-1-x-1-1-1-------------------|
D--8-0-0-0--8-0-0-0--8-0-0-0--8-0-0-0---1-1-x-1-1-1-------------------|

E---------------------------------------------------------------------|
B---------------------------------------------------------------------|
G---------------------------------------------------------------------|
D---------------------------------------3-3-x-3-3-3-------------------|
A---------------------------------------3-3-x-3-3-3-------------------|
D---------------------------------------3-3-x-3-3-3-------------------|

E---------------------------------------------------------------------|
B---------------------------------------------------------------------|
G---------------------------------------------------------------------|
D--8-0-0-0--8-0-0-0--8-0-0-0--8-0-0-0---3-3-x-3-3-3-------------------|
A--8-0-0-0--8-0-0-0--8-0-0-0--8-0-0-0---3-3-x-3-3-3-------------------|
D--8-0-0-0--8-0-0-0--8-0-0-0--8-0-0-0---3-3-x-3-3-3-------------------|

E--------------------------------------------------------------------------|
B--------------------------------------------------------------------------|
G--------------------------------------------------------------------------|
D---------------------------------------5-5-x-5-5-5------------------------|
A---------------------------------------5-5-x-5-5-5------------------------|
D---------------------------------------5-5-x-5-5-5------------------------|



(Check Amount Of Strokes Here!!!!!)
E--------------------------------------------------------------------------|
B--------------------------------------------------------------------------|
G--------------------------------------------------------------------------|
D--0-------3-------8-------3-----------------------------------------------|
A--0-------3-------8-------3-----------------------------------------------|
D--0-------3-------8-------3-----------------------------------------------|
P.M.........................

Just breathe and bring yourself back to me
How can you let go?
2 Guitar
E--------------------------------------------------------------------------|
B--------------------------------------------------------------------------|
G------------10------------------------------------------------------------|
D--------10--10--10--------------------------------------------------------|
A-----8--------------8-----------------------------------------------------|
D--------------------------------------------------------------------------|
Of everything you meant to me
Time to it slow

01:28-01:47
(Check Amount Of Strokes Here!!!!!)
E--------------------------------------------------------------------------|
B--------------------------------------------------------------------------|
G--------------------------------------------------------------------------|
D--0-------3-------8-------3-----------------------------------------------|
A--0-------3-------8-------3-----------------------------------------------|
D--0-------3-------8-------3-----------------------------------------------|
P.M.........................

2 Guitar(Clean)
E--------------------------------------------------------------------------|
B--------------------------------------------------------------------------|
G----------10-----------------12------------------12-----------------------|
D------10-----10----------12-----12-----------12------12-------------------|
A---/8------------8----8-------------8----10--------------10---------------|
D--------------------------------------------------------------------------|

(Check Amount Of Strokes Here!!!!!)
E--------------------------------------------------------------------------|
B--------------------------------------------------------------------------|
G--------------------------------------------------------------------------|
D--0------3-----6-----8-7-5-7----------------------------------------------|
A--0------3-----6-----8/7/5/7----------------------------------------------|
D--0------3-----6-----8-7-5-7----------------------------------------------|

CHORUS Riff
1 Guitarr
E--------------------------------------------------------------------------|
B--------------------------------------------------------------------------|
G--------------------------------------------------------------------------|
D--0-0-0---------3-3-3---------5--------8-7-5-3-5-3------------------------|
A--0-0-0-(x2)----3-3-3-(x2)----5-(x2)---8/7/5/3/5/3------------------------|
D--0-0-0---------3-3-3---------5--------8-7-5-3-5-3------------------------|

2 Guitar(Distorted)

E--------------------------------------------------------------------------|
B--------------------------------------------------------------------------|
G---------10------------------12------------------12-----------------------|
D------10-----10----------12-----12-----------12------12-------------------|
A---/8------------8----8-------------8----10--------------10---------------|
D--------------------------------------------------------------------------|

E--------------------------------------------------------------------------|
B--------------------------------------------------------------------------|
G--10------10------10------10h12----10-----10-------10--------10h12--------|
D-------10------10------10-------10-----10------10-------10----------10----|
A--------------------------------------------------------------------------|
D--------------------------------------------------------------------------|


E--------------------------------------------------------------------------|
B--------------------------------------------------------------------------|
G-10b--10-10-10-10-12-12-12-12-14-14-14-14-14-14-17-17-17-17---------------|
D--------------------------------------------------------------------------|
A--------------------------------------------------------------------------|
D--------------------------------------------------------------------------|

BREAKDOWN Riff
E-------------------------------------------------------|\       E-------|
B-------------------------------------------------------| \      B-------|
G-------------------------------------------------------|  \     G-------|
D--0-0-1-0-0-0-0--0-0-0-0-0-0--3-3-3-3-3-3-3-3----------|x4/Then-D---0---|
A--0-0-1-0-0-0-0--0-0-0-0-0-0--3-3-3-3-3-3-3-3----------| /      A---0---|
D--0-0-1-0-0-0-0--0-0-0-0-0-0--3-3-3-3-3-3-3-3----------|/       D---0---|
                               . . . . . . . .
2 Guitar(Distorted)

E--------------------------------------------------------------------------|
B--------------------------------------------------------------------------|
G--10------10------10------10h12----10-----10-------10--------10h12--------|
D-------10------10------10-------10-----10------10-------10----------10----|
A--------------------------------------------------------------------------|
D--------------------------------------------------------------------------|


INTRO Riff
VERSE Riff

Yeah you're shaking now falling out and you can't take it
Just breathe in breathe out let it flow
Just ease your mind and take your time
Yeah can't you feel it?
This one life this time this time let it show
Just breathe and bring yourself back to me
How can you let go?
Of everything you meant to me
Time to it slow

INTRO Riff

No don't go

VERSE Riff
All you want's a taste you can't erase
It's taken over
Just one chance last stand
Take it slow
Tired of waking up feeling down
And you can't take it
Well strike back take that
Let it show
Just breathe and bring yourself back to me
How can you let go?
Of everything you meant to me
It's time to take it slow

CHORUS Riff
It's your last chance to take your stand
God only knows
The time has come what's left undone?
How can you let how can you?

BREAKDOWN RIff
Just breathe you gotta fight to make it through this
You can't leave me
How can you let how can you let go?
Tap to rate this tab
 
# A B C D E F G H I J K L M N O P Q R S T U V W X Y Z