Edgewater - One Perfect Something tab

I will complete this song later


1 Guitar
D-----------------9-----|
A--7--7-7--7-7-7--7-7---| Play this riff many times!
F--7--7-7--7-7-7--7-7---|
C-----------------------| 
G-----------------------|
C-----------------------|

2 Guitar
D------------------------------------|
A------------------------------------|
F------------------------------------|
C---4-0--0-0--4--4-4-----------------|
G-2-----2-------2----/2-(2)----------|
C------------------------------------|
Tap to rate this tab
 
# A B C D E F G H I J K L M N O P Q R S T U V W X Y Z