Guitaretab - guitar tabs
Song name
# A B C D E F G H I J K L M N O P Q R S T U V W X Y Z

Edguy - Dragonfly tab

-------------------------------------------------------------------------------
			     Dragonfly - Edguy
-------------------------------------------------------------------------------
Email: david.hartman@marquette.edu

Tuning: Standard

VERSE: repeat a few times ... I didnít add in the rhythm buts its super easy to figure
NOTE: pick using your fingers for this part!

e|---------------------------------------------------------------------------|
B|---------------------------------------------------------------------------|
G|---2----5----5----4----5---4-----------------------------------------------|
D|---2----3----5----5----5---5-----------------------------------------------|
A|---------------------------------------------------------------------------|
E|---------------------------------------------------------------------------|

PreChorus: again to lazy to add the rhythm Iím pretty sure this is right, but maybe 
a few notes

e|---------------------------------------------------------------------------|
B|---------------------------------------------------------------------------|
G|---------------------------------------------------------------------------|
D|--3----5---7---5---3---2---------------------------------------------------|
A|--3----5---5---5---3---2---------------------------------------------------|
E|--1----3---5---3---1---0---------------------------------------------------|
[ Tab from: http://www.guitaretab.com/e/edguy/176642.html ]
Chorus1:
e|---------------------------------------------------------------------------|
B|------------------5--------------------------------------------------------|
G|----5-------3--5--3---3--5-------------------------------------------------|
D|----5---5---3--5--1---3--5--------repeat-----------------------------------|
A|----3---5---1--3------1--3-------------------------------------------------|
E|--------4------------------------------------------------------------------|

Solo is in C minor

Chorus2: Key change to D
e|---------------------------------------------------------------------------|
B|---------------------------------------------------------------------------|
G|----7---3--5---7---------5---7---------------------------------------------|
D|----7---3--5---7----3----5---7------repeat---------------------------------|
A|----5---1--3---5----3----3---5---------------------------------------------|
E|--------------------1------------------------------------------------------|

Ending:
e|------------------------------------------------------------------------------|
B|------------------------------------------------------------------------------|
G|----7------5-----3----5---7---------------------------------------------------|
D|----7---5--5--3--3----5---7---------------------------------------------------|
A|----5---5--3--3--1----3---5---------------------------------------------------|
E|--------3-----1---------------------------------------------------------------|

| /  slide up
| \  slide down
| h  hammer-on
| p  pull-off
| ~  vibrato
| +  harmonic
| x  Mute note

Please comment cause Iím pretty sure its close to 100% correct but not positive and this
rocks so I would like to have it figured out 100% . . . ENJOY!!!!
===============================================================================
Related for Dragonfly tab