Song name
# A B C D E F G H I J K L M N O P Q R S T U V W X Y Z

Edguy - Nailed To The Wheel tab

e|----------------------------------------------------------------------------|
h|-------------------------------------------0--------------------------------|
g|------------------0--------------------2-------2---0------------------------|
d|---------2---------------2--------2-------------------------0---------------|
a|-------------2----------------2-----------------------------------2---0-----|
E|----0-----------------------------------------------------------------------|


e|----------------------------------------------------------------------------|
h|---------------0---------------------------------------------0--------------|
g|---------------------------------------------------2--------------2---0-----|
d|-------0-----------0-------0----------0-------------------------------------|
a|-----------2-----------2---------------------0------------------------------|
E|---3-----------------------------2------------------------------------------|
Tap to rate this tab
 
# A B C D E F G H I J K L M N O P Q R S T U V W X Y Z