Song name
# A B C D E F G H I J K L M N O P Q R S T U V W X Y Z

Edguy - Blessing In Disguise tab

Please listen to the song for the accurate timing.
I have shared the solo into four parts, so that the "main breaks" are getting obvious.

|-------------------------------------|
|-------------------------------------|
|-16b18r16----16b18r16-------16-------|
|----------16----------16-19----19-16-|
|-------------------------------------|
|-------------------------------------|

|-------------------------|
|-------------------------|
|-16b18r16-------16-------|
|----------16-19----19-18-|
|-------------------------|
|-------------------------|

|----------------------------|
|----------------------------|
|----------------------------|
|-18b19r18-16----16----16----|
|-------------19----19----16-|
|----------------------------|

|----------------------------------------------------16b17r16-14-12-12-/14-|
|-17b19-17b19r17-15----15----------16/17-14--------------------------------|
|-------------------18----14-16b17----------16-14-16-----------------------|
|--------------------------------------------------------------------------|
|--------------------------------------------------------------------------|
|--------------------------------------------------------------------------|

Enjoy!
Tap to rate this tab
# A B C D E F G H I J K L M N O P Q R S T U V W X Y Z