Guitaretab - guitar tabs
Song name
# A B C D E F G H I J K L M N O P Q R S T U V W X Y Z

Edie Brickell - What I Am tab

--------------------------------------------------------------------------
			     WHAT I AM – EDDIE BRICKELL
--------------------------------------------------------------------------
Tabbed by: eivram
Email: eivramdj@yahoo.com

Tuning: standard

TM: 4/4 

 
| /  slide up
| \  slide down
| h  hammer-on
| p  pull-off
| ~  vibrato
| +  harmonic
| x  Mute note

CHORDS : 

| B9 : x24422     
| D9 : x57755
| A9 : x02200
| Em : 022000
| D  : xx0232
 

This is the main rift. Play the first to beats in staccato, and then let the last two counts ring. 

    B9                      D9
e|-------2------------2-----------5-----------5-----|
B|-------2------------2-----------5-----------5-----|
G|-----------------------4--------------------------|
D|--------------4--4--------------------7-----------|
A|--2--2--------------------5-----------------------|
E|--------------------------------------------------|
    V  ^  ^  ^  V  ^  ^  ^  V  ^  ^  ^  V  ^  ^  ^

    A9                      B9
e|--------0-----------0-----------2-----------2-----|
B|--------0-----------0-----------2-----------2-----|
G|-----------------------2--------------------------|
D|--------------2--2--------------------4-----------|
A|--0--0--------------------2-----------------------|
E|--------------------------------------------------|
    V  ^  ^  ^  V  ^  ^  ^  V  ^  ^  ^  V  ^  ^  ^


This is the refrain part… (choke me…..blah.. blah..)
[ Tab from: http://www.guitaretab.com/e/edie-brickell/121193.html ]
    Em
e|--12----------15----------12---10----12---10------|
B|--------------------------------------------------|
G|--------------------------------------------------|
D|--------------------------------------------------|
A|--------------------------------------------------|
E|--------------------------------------------------|
    V  ^  ^  ^  V  ^  ^  ^  V  ^  ^  ^  V  ^  ^  ^

    D
e|--10----------14----------12----------10----------|
B|--------------------------------------------------|
G|--------------------------------------------------|
D|--------------------------------------------------|
A|--------------------------------------------------|
E|--------------------------------------------------|
    V  ^  ^  ^  V  ^  ^  ^  V  ^  ^  ^  V  ^  ^  ^

    Em
e|--12----------15----------12---10----12---10------|
B|--------------------------------------------------|
G|--------------------------------------------------|
D|--------------------------------------------------|
A|--------------------------------------------------|
E|--------------------------------------------------|
    V  ^  ^  ^  V  ^  ^  ^  V  ^  ^  ^  V  ^  ^  ^

    D
e|--10----------14----------15----------17----------|
B|--------------------------------------------------|
G|--------------------------------------------------|
D|--------------------------------------------------|
A|--------------------------------------------------|
E|--------------------------------------------------|
    V  ^  ^  ^  V  ^  ^  ^  V  ^  ^  ^  V  ^  ^  ^
Related for What I Am tab
What I Am chords by Edie Brickell