Song name
# A B C D E F G H I J K L M N O P Q R S T U V W X Y Z

Edit - Pound 4 Pound tab

------------------------------------------------------------------------------
			    POUND 4 POUND - edIT
------------------------------------------------------------------------------

Tabbed by: Seismatters
Tuning: Standard E A D G B E
Reference Video: https://www.youtube.com/watch?v=NU_PHoRrUXk&feature=kp

Okay, so it's a long bloody song that hasn't exactly been made easy to tab, but I have 
tried as hard as I can to get it tabbed to the best of my ability.

Part 1- (0:00 - 0:16)
e|-5-5-5-5-3-3-3-3-5-5-5-5-3-3-3-3-5-5-5-5-3-3-3-3-5-5-5-5-5-5-5-5----------|
B|--------------------------------------------------------------------------|
G|--------------------------------------------------------------------------|
D|--------------------------------------------------------------------------|
A|--------------------------------------------------------------------------|
E|-5-5-5-5-3-3-3-3-5-5-5-5-3-3-3-3-5-5-5-5-3-3-3-3-5-5-5-5-5-5-5-5----------|

Part 2A- (0:18 - 0:54)

B#m Am | B#m | Dm | Gm | Fm - (Rains)
B#m Am | B#m | Dm | Gm | Fm - (Down in Africa)
B#m Am | B#m | Dm | Gm | Fm - (Rains)
B#m Am | B#m | Dm | Gm | Fm - (Down in Africa)

Part 2B- (0:36 - 0:54)
e|-5-9-8-5-9---3--1---5-9-8-5-9---3--1---5-9-8-5-9---3--1---5-9-8-5-9---3--1|
B|--------------------------------------------------------------------------|
G|--------------------------------------------------------------------------|
D|--------------------------------------------------------------------------|
A|--------------------------------------------------------------------------|
E|--------------------------------------------------------------------------|

Part 3A- (0:54 - 1:32)

Dm | Dm | Em Dm B#m Am |

Part 3B- (0:54 - 1:13)
e|5------5--------3-------5-----5-5-5---------------------------------------|
B|--5-2----5-2--5---5-2-5---5-2-------5-2-----------------------------------|
G|--------------------------------------------------------------------------|
D|--------------------------------------------------------------------------|
A|--------------------------------------------------------------------------|
E|--------------------------------------------------------------------------|

Part 3C- (1:13 - 1:32)
e|------3-5---3-5----3-5-3-----5-------5--------3---------------------------|
B|-3--5-----5------5-------5------5-2----5-2--5---5-2-5---------------------|
G|---------------------------5----------------------------------------------|
D|--------------------------------------------------------------------------|
A|--------------------------------------------------------------------------|
E|--------------------------------------------------------------------------|

e|-------------8-5----------------------------------------------------------|
B|-8--8-8-8-5---------------------------------------------------------------|
G|--------------------------------------------------------------------------|
D|--------------------------------------------------------------------------|
A|--------------------------------------------------------------------------|
E|--------------------------------------------------------------------------|

Part 4- (2:26 -  3:03)

Am | B#m | Dm | Em | Em Dm Em Dm B#m

Part 5A- (3:05- 3:40)

Am | Dm B#m |

Part 5B- (3:23 - 3:40)
e|-8-8-8-8-8-8-8-8-7-7-7-7-7-7-7-7-5-5-5-5-5-5-5-5-12-12-12-12-12-12-12-12--|
B|--------------------------------------------------------------------------|
G|--------------------------------------------------------------------------|
D|--------------------------------------------------------------------------|
A|--------------------------------------------------------------------------|
E|--------------------------------------------------------------------------|
Tap to rate this tab
# A B C D E F G H I J K L M N O P Q R S T U V W X Y Z