Guitaretab - guitar tabs
Song name
# A B C D E F G H I J K L M N O P Q R S T U V W X Y Z
Home / E / Editors / Sparks tab

Editors - Sparks tab

-------------------------------------------------------------------------------
			     Sparks - Editors
-------------------------------------------------------------------------------
Tabbed by: DT
Email: alex_turner30@hotmail.com

Tuning: EADGBE
Intro
e|------------------------------------------------------------------------------|
B|------------------------------------------------------------------------------|
G|--------11-11-9-9-11-11---(x3)------------------------------------------------|
D|------------------------------------------------------------------------------|
A|--9-9-------------------------------------------------------------------------|
E|------------------------------------------------------------------------------|

e|-----------------------------------------------------------------------------|
B|-----------------------------------------------------------------------------|
G|-------11-11-9-9-13-13-13-14-11----13-13-13-14-11---9-11---------------------|
D|-----------------------------------------------------------------------------|
A|--9-9------------------------------------------------------------------------|
E|-----------------------------------------------------------------------------|

e|-----------------------------------------------------------------------------|
B|-----------------------------------------------------------------------------|
G|--------11-11-9-9-11-11---(x2)-----------------------------------------------|
D|-----------------------------------------------------------------------------|
A|--9-9------------------------------------------------------------------------|
E|-----------------------------------------------------------------------------|
Then repeat the whole thing
[ Tab from: http://www.guitaretab.com/e/editors/138625.html ]
Verse
e|-----------------------------------------------------------------------------|
B|--------14-17-------repeat as necessary--------------------------------------|
G|-----------------------------------------------------------------------------|
D|-----------------------------------------------------------------------------|
A|-----------------------------------------------------------------------------|
E|-----------------------------------------------------------------------------|
Chorus
e|-----------------------------------------------------------------------------|
B|-------//17 (x8) 15-15-14-14-12-12-10------------------(x3)------------------|
G|-----------------------------------------------------------------------------|
D|-----------------------------------------------------------------------------|
A|-----------------------------------------------------------------------------|
E|-----------------------------------------------------------------------------|


Then
e|-----------------------------------------------------------------------------|
B|------17 (x8)--21-(x8)----------------------------------------------- -------|
G|---------------------------------------------------------------------- ------|
D|-----------------------------------------------------------------------------|
A|-----------------------------------------------------------------------------|
E|-----------------------------------------------------------------------------|
If you wanna play some chords for this bit, you can play this
e|-----------------------------------------------------------------------------|
B|-----------------------------------------------------------------------------|
G|-----------------------------------------------------------------------------|
D|---7--------11-------14------------------------------------------------------|
A|---7--------11-------14------------------------------------------------------|
E|---5-(x8)--9-(x4)--12-(x4)---------------------------------------------------|
Finish with
e|-----------------------------------------------------------------------------|
B|-----14-///------------------------------------------------------------------|
G|-----11-///------------------------------------------------------------------|
D|-----------------------------------------------------------------------------|
A|-----------------------------------------------------------------------------|
E|-----------------------------------------------------------------------------|
Thatís all the parts, itís easy to work out where they go.

| /  slide up
| \  slide down
| h  hammer-on
| p  pull-off
| ~  vibrato
| +  harmonic
| x  Mute note
===============================================================================
Related for Sparks tab