Song name
# A B C D E F G H I J K L M N O P Q R S T U V W X Y Z

Editors - You Are Fading tab

I've been trying to play You Are Fading for ages, and this is what I got:

Intro: Only move your 4th finger...

E|----------------------------------------------------------------------------------|
B|----------------------------------------------------------------------------------|
G|-----6-----6---6-------6----6---6-------6-------6-----6-------6------6-----6------|
D|---7-----7------------7----7-----------7-------7------------7------7--------------|
A|-7-----7-----7-----5----5-----5---------------------------------------------------|
E|-------------------------------------5------5--------5-----7------7------7--------|

Chords for the rest of the song are: E - D - A - E, but live they mostly play:
E-D-A-E
B-D-A-E

The melody from Chris is played like this, I guess:

E|------12----12-----12----12----12----12----12----12---|
B|--12----12-----12-----12----10----10----10----10------|
G|------------------------------------------------------|
D|------------------------------------------------------|
A|------------------------------------------------------|
E|------------------------------------------------------|
And then again but inversed: 10-note before 12 on B.

Then you have:

E|------12----12-----12----12----12----12----12----12------12-----12-----12-----12--|
B|--12----12-----12-----12----10----10----10----10-----14-----14-----14-----14------|
G|----------------------------------------------------------------------------------|
D|----------------------------------------------------------------------------------|
A|----------------------------------------------------------------------------------|
E|----------------------------------------------------------------------------------|

E|----------------------------------------------------------------------------------|
B|--12--12--12--10--9--10--9------------12-------12---12---------10--------10---10--|
G|---------------------------9---9--9-----9--9-----9------7--7------7--7-----7------|
D|----------------------------------------------------------------------------------|
A|----------------------------------------------------------------------------------|
E|----------------------------------------------------------------------------------|

And back to the 14th on B.

Then comes the breakdown, which is the hardest thing to figure out, but I play it like 
(which isn't 100% correct...):

E|-------------0----------0---------0-----0------0------0------0---------0---------0-------|
B|------------------10-------10---------------9------9-------------12--------12-------12---|
G|--------------11--------11--------11----9------9------9----13--------13-------13---------|
D|-----------------------------------------------------------------------------------------|
A|-----------------------------------------------------------------------------------------|
E|-----------------------------------------------------------------------------------------|

And back to the 9th piece... Guess that's all I can figure out... Hope you'll have fun 
it, it's really cool to play.
Tap to rate this tab
# A B C D E F G H I J K L M N O P Q R S T U V W X Y Z