Song name
# A B C D E F G H I J K L M N O P Q R S T U V W X Y Z

Editors - Papillon Acoustic tab

Thatīs the acoustic version of the song Papillon. Tom Smith played it for example 
in the German TV show 'MTV Home'. 
Here you can see the vid:
http://www.youtube.com/watch?v=Rc1Pr3Y_QpU

Have fun!


Verse:

     Make your...          Youīre...   
                                 own...

|--0-----0-----0-----|-3-----3---7----7--|
|----7-----7---------|---5--------9------|
|--------------------|-------------------|
|------0-----0----0--|-----0--------0----|
|--------------------|-------------------|
|--------------------|-------------------|

Chorus:

   Darling...         ...donīt put...  guns...             If there...

|------------------------------------|----------------------------------|
|--3-----3-----3---3-----2-----2-----|-----------------------2-----2----|
|----2-----2---------2-----0---------|-4-----4-----4---4-------0--------|
|------------------------------------|---0-----0---------0--------------|
|------1-----1---1-----1-----0---0---|-----3-----3---3-----3-----0---0--|
|------------------------------------|----------------------------------|

Tap to rate this tab
 
# A B C D E F G H I J K L M N O P Q R S T U V W X Y Z