Song name
# A B C D E F G H I J K L M N O P Q R S T U V W X Y Z

Editors - Papillon tab

-----------------------------------------------------------------------------
			     Papillon - Editors
-----------------------------------------------------------------------------
Tabbed by: Ross Adamson

Tuning: Standard

Played using a synthesizer, however the song sounds good when played with a guitar too.

For Editors-like effect, use overdrive and lots of reverb.

"It kicks like a sleep twitch!"

(Play notes as many times as neccessary).

e|--10--7-------------10--7--------------------------------------------------|
B|----------10--7---------------10--7----------------------------------------|
G|---------------------------------------------------------------------------|
D|---------------------------------------------------------------------------|
A|---------------------------------------------------------------------------|
E|---------------------------------------------------------------------------|

Chorus

(Again, repeat as neccessary).

e|---------------------------------------------------------------------------|
B|--0-3-3---8-7-5-3---0-3-3-5--8-7-5-3---------------------------------------|
G|--------0------------------------------------------------------------------|
D|---------------------------------------------------------------------------|
A|---------------------------------------------------------------------------|
E|---------------------------------------------------------------------------|

Back to:

e|--10--7-------------10--7--------------------------------------------------|
B|----------10--7---------------10--7----------------------------------------|
G|---------------------------------------------------------------------------|
D|---------------------------------------------------------------------------|
A|---------------------------------------------------------------------------|
E|---------------------------------------------------------------------------|
Tap to rate this tab
# A B C D E F G H I J K L M N O P Q R S T U V W X Y Z